>
 >
 Hourglass

 Hourglass Guitar Tabs

Lamb Of God -  Hourglass chords, tabs, tablatures, lyrics

Guitar lessons | Add/correct | Request | Top 50 tabs Artists:  A B C D E F G H I J K L M N O P Q R S T U V W X Y Z 0-9

 Hourglass Guitar Tabs – Lamb Of God

CD, Sheet music, Poster

Do you like  Hourglass? Share with your friends now
Tabs
Tuning: Dropped D
D,A,G,D,B,A
Sorry but my timing is way off but you can work it out by listening to the song.
Intro(x2):
|----------------------------------------------------------------|
|----------------------------------------------------------11-10-|
|-----------------------------------------------------10-9-------|
|----------------------------------------------------------------|
|----------7h8-----9h10--------------------7h8----9h10-----------|
|-000-000------000------000-3-6-5-3-000-000----000---------------|
pm... ...      ...      ...         ... ...    ...

|-------------------------------------------------------------------|
|-------------------------------------------------------------------|
|-------------------------------------------------------------------|
|-------------------------------------------------------------------|
|---------7h8----9h10-------------------6p5---4p3---2-0-4h5p4-------|
|-000-000-----000----000-3-6-5-3-000-000---000---000-----------0-0-0|
pm... ...     ...    ...         ... ...   ...   ...           . . .

Verse(x2)
|----------------------------------------------------------|
|----------------------------------------------------------|
|----------------------------------------------------------|
|------------------------9-8-7-----------------------------|
|------6-5-----7h8p7---------------6-5---5-4---------------|
|-0-0-0---0-0-0-----0-0-0-----0-0-0---0-0---0-0-0-0-0-0-0--|
pm. . .   . . .     . . .     . . .   . .   . . . . . . . 

|---------------------------------|
|---------------------------------|
|---------------------------------|
|---------------------------------|
|------6-5------------------------|
|-0-0-0---0-0-0-7h8p7-0-0-0-9-8-7-|
pm. . .   . . .       . . . 

A-0-0-2-1-0-|
D-0-0-2-1-0-|
pm. . . . .

|------------------------------------------------------------------|
|------------------------------------------------------------------|
|------------------------------------------------------------------|
|-----8---5h7-----8----5h7-----7h8\5-----8---5h7---8-7-------------|
|------------------------------------------------------------------|
|-0-0---0-----0-0----0-----0-0-------0-0---0-----0-----0-7h8p7-5p0-| x4
pm. .   .     . .    .     . .       . .   .     .     .

Interlude1 (x2):
|-----------------------------------------------------|
|-----------------------------------------------------|
|-----------------------------------------------------|
|-----8-5/7---8-5/7---------------8-5/7---1010--8-8---|
|-----6-3/5---6-3/5---------------6-3/5---8-8---6-6---|
|-0-0-------0-------0-0-0-0-0-0-0-------0-----0-----0-|
pm. .       .       . . . . . . .       .     .     .

|-----------------------------------------------------|
|-----------------------------------------------------|
|-----------------------------------------------------|
|-----8-5/7---8-5/7---------------8-5/7---------------|
|-----6-3/5---6-3/5---------------6-3/5---5-5---3-3---|
|-0-0-------0-------0-0-0-0-0-0-0-------0-5-5-0-3-3-0-|
pm. .       .       . . . . . . .       .     .     .

|------------------------------------------------------------|
|------------------------------------------------------------|
|------------------------------------------------------------|
|-------7-------------7--------------------------------------|
|---7-8-----------7-8-----------7-8-5----------7-8-5---------|
|-0--------0-0-0-0-----0-0-0-0-0-------0-0-0-0-0-------------| x4
pm.     . . . . .     . . . . .       . . . . .

|------------------------------------------------------------|
|------------------------------------------------------------|
|--------9---------------9-----------------------------------|
|---9-10-7---------9-10--7---------9-10-7----------9-10-7----|
|---7-8------------7-8-------------7-8--5----------7-8--5----|
|-0-------0-0-0-0-0-------0-0-0-0-0-------0-0-0-0-0----------| x4
pm.       . . . . .       . . . . .       . . . . . 

Not sure about the next bit.
(2:15)
|------------|
|------------|
|------------|
|-0----------|
|-0-let ring-|
|-0----------|

(2:21)
|------------|
|------------|
|------------|
|-2-5-0-4-3-0|
|-2-5-0-4-3-0|
|-2-5-0-4-3-0|
pm. . . . . . 
(2:33)
|--------------------------------------------------------------------------|
|--------------------------------------------------------------------------|
|--------------------------------------------------------------------------|
|-0---2-5-0-4-3-0-2---2-5-0-4-3-0-4---2-5-0-4-3-0---------------2-5-0-4-3-0|
|-0---2-5-0-4-3-0-2---2-5-0-4-3-0-4---2-5-0-4-3-0-7h8p7-11-10-9-2-5-0-4-3-0|
|-0---2-5-0-4-3-0-2---2-5-0-4-3-0-4---2-5-0-4-3-0---------------2-5-0-4-3-0|
pm    . . . . . .     . . . . . .     . . . . . .        .  . . . . . . . .

(2:57)
|---------------------------------|
|---------------------------------|
|---------------------------------|
|---------------------------------|
|---------------------------------|
|-0-0-0-0-0-0-0-0-0-0-0-0-0-0-0-0-|
pm. . . . . . . . . . . . . . . .

(3:23)
|---------------------------------|
|---------------------------------|
|---------------------------------|
|---------------------------------|
|---------------------------------|
|-0-5-4-3-2-----------------------|





Comments


Popular Lamb Of God tabs & chords
Black Label 6 Bass Tabs
Blacken The Cursed Sun Bass Tabs
Descending Bass Tabs
In The Absence Of The Sacred Bass Tabs
Laid To Rest 3 Bass Tabs
Requiem Bass Tabs
11th Hour 2 Tabs
Desolation Tabs
Ghost Walking 2 Tabs
Hourglass 5 Tabs


Song lyrics



↑ Back to top | Tablatures and chords are parodies/interpretations of the original songs. You may use it for private study, scholarship, research or language learning purposes only
© 2014 AZChords.com Contact us | Privacy policy | DMCA | Add/correct tabs | Request tabs | Top 50 tabs