» » »

Again We Rise Bass tabs (ver.2)

Artists:  A B C D E F G H I J K L M N O P Q R S T U V W X Y Z # 

Again We Rise Bass tabs (ver.2)

Lamb Of God
Rating:
0/5 (0 votes)

Hard to play? Try these video lessons and learn fast.
                ------------------------------------------------------------------------------------------------
AGAIN WE RISE – Lamb Of God
------------------------------------------------------------------------------------------------


Tuning: Drop D (from low to high: D,A,D,G)

This tab is based off of the bass master track, which can be found here:

Intro

G|---|---|---|---|---|---|---|---|---|-----|-----|-----|---------|---|---|---|
D|---|---|---|---|---|---|---|---|---|-----|-----|-----|---------|---|---|---|
A|---|---|---|---|---|---|---|---|---|-----|-----|-----|---------|---|---|---|
D|---|---|---|---|---|---|---|---|-0-|-(0)-|-(0)-|-(0)-|-0-0-0---|---|---|---|

G||--------------|-------------|-------------|-------------|
D||*-------------|-------------|-------------|-------------|
A||*-------------|-------------|-------------|-------------|
D||--0-3-0-0-0-0-|-0-3-0-0-0-0-|-0-3-0-0-0-0-|-0-3-0-0-0-0-|
			      ______________________________________
			     |1. 2. 3.			   |4.
G|-------------|-------------|-------------|--------------||---|---|
D|-------------|-------------|-------------|-------------*||---|---|
A|-4---4-------|-4---4-------|-------------|-------------*||---|---|
D|---3---0-0-0-|---3---0-0-0-|-1-4-1-0-0-0-|-1-4-1-0-0-0--||---|---|

Verse

G|-------------|--------------|--------------|---------------|
D|-------------|--------------|--------------|---------------|
A|-------------|--------------|--------------|---------------|
D|-0-0-0-0-0-0-|-12-8-7-0-0-0-|-0-0-0-11-8-7-|-0-0-0-13-10-8-|

G|-------------|--------------|--------------|---------------|
D|-------------|--------------|--------------|---------------|
A|-------------|--------------|--------------|-3-----3-------|
D|-0-0-0-0-0-0-|-12-8-7-0-0-0-|-6-0-6-0-3-6--|---6-3---6-2---|

G|-------------|--------------|--------------|---------------|
D|-------------|--------------|--------------|---------------|
A|-------------|--------------|--------------|---------------|
D|-0-0-0-0-0-0-|-12-8-7-0-0-0-|-0-0-0-11-8-7-|-0-0-0-13-10-8-|

G|-------------|--------------|--------------|---------------|
D|-------------|--------------|--------------|---------------|
A|-------------|--------------|--------------|---------------|
D|-0-0-0-0-0-0-|-12-8-7-0-0-0-|-5-5-5-5-5-5--|-5-6-6-6-6-6---|

G|-------------|--------------|--------------|---------------|
D|-------------|--------------|--------------|---------------|
A|-------------|--------------|--------------|---------------|
D|-0-0-0-0-0-0-|--------0-0-0-|-0-0-0--------|-0-0-0---------|

G|-------------|--------------|--------------|---------------|
D|-------------|--------------|--------------|---------------|
A|-------------|--------------|--------------|-3-----3-------|
D|-0-0-0-0-0-0-|--------0-0-0-|-6-0-6-0-3-6--|---6-3---6-2---|

G|-------------|--------------|--------------|---------------|
D|-------------|--------------|--------------|---------------|
A|-------------|--------------|--------------|---------------|
D|-0-0-0-0-0-0-|--------0-0-0-|-0-0-0--------|-0-0-0---------|

G|-------------|--------------|--------------|---------------|
D|-------------|--------------|--------------|---------------|
A|-------------|--------------|--------------|---------------|
D|-0-0-0-0-0-0-|--------0-0-0-|-5-5-5-5-5-5--|-5-6-6-6-6-6---|

Chorus

G||--------------|-------------|-------------|-------------|
D||*-------------|-------------|-------------|-------------|
A||*-------------|-------------|-------------|-------------|
D||--0-3-0-0-0-0-|-0-3-0-0-0-0-|-0-3-0-0-0-0-|-0-3-0-0-0-0-|
			      ______________________________________
			     |1.             		   |2.
G|-------------|-------------|-------------|--------------||---|---|
D|-------------|-------------|-------------|-------------*||---|---|
A|-4---4-------|-4---4-------|-------------|-------------*||---|---|
D|---3---0-0-0-|---3---0-0-0-|-1-4-1-0-0-0-|-1-4-1-0-0-0--||---|---|

Verse

G|-------------|--------------|--------------|---------------|
D|-------------|--------------|--------------|---------------|
A|-------------|--------------|--------------|---------------|
D|-0-0-0-0-0-0-|-12-8-7-0-0-0-|-0-0-0-11-8-7-|-0-0-0-13-10-8-|

G|-------------|--------------|--------------|---------------|
D|-------------|--------------|--------------|---------------|
A|-------------|--------------|--------------|-3-----3-------|
D|-0-0-0-0-0-0-|-12-8-7-0-0-0-|-6-0-6-0-3-6--|---6-3---6-2---|

G|-------------|--------------|--------------|---------------|
D|-------------|--------------|--------------|---------------|
A|-------------|--------------|--------------|---------------|
D|-0-0-0-0-0-0-|-12-8-7-0-0-0-|-0-0-0-11-8-7-|-0-0-0-13-10-8-|

G|-------------|--------------|--------------|---------------|
D|-------------|--------------|--------------|---------------|
A|-------------|--------------|--------------|---------------|
D|-0-0-0-0-0-0-|-12-8-7-0-0-0-|-5-5-5-5-5-5--|-5-6-6-6-6-6---|

G|-------------|--------------|--------------|---------------|
D|-------------|--------------|--------------|---------------|
A|-------------|--------------|--------------|---------------|
D|-0-0-0-0-0-0-|--------0-0-0-|-0-0-0--------|-0-0-0---------|

G|-------------|--------------|--------------|---------------|
D|-------------|--------------|--------------|---------------|
A|-------------|--------------|--------------|-3-----3-------|
D|-0-0-0-0-0-0-|--------0-0-0-|-6-0-6-0-3-6--|---6-3---6-2---|

G|-------------|--------------|--------------|---------------|
D|-------------|--------------|--------------|---------------|
A|-------------|--------------|--------------|---------------|
D|-0-0-0-0-0-0-|--------0-0-0-|-0-0-0--------|-0-0-0---------|

G|-------------|--------------|--------------|---------------|
D|-------------|--------------|--------------|---------------|
A|-------------|--------------|--------------|---------------|
D|-0-0-0-0-0-0-|--------0-0-0-|-5-5-5-5-5-5--|-5-6-6-6-6-6---|

Chorus

G||--------------|-------------|-------------|-------------|
D||*-------------|-------------|-------------|-------------|
A||*-------------|-------------|-------------|-------------|
D||--0-3-0-0-0-0-|-0-3-0-0-0-0-|-0-3-0-0-0-0-|-0-3-0-0-0-0-|

G|-------------|-------------|-------------|--------------||
D|-------------|-------------|-------------|-------------*||
A|-4---4-------|-4---4-------|-------------|-------------*||
D|---3---0-0-0-|---3---0-0-0-|-1-4-1-0-0-0-|-1-4-1-0-0-0--||

Breakdown

G||--------------|-------------|-------------|-------------|
D||*-------------|-------------|-------------|-------------|
A||*-------------|-5---5-------|-------------|-5---5-------|
D||--0-0-0-0-0-0-|---3---0-0-0-|-0-0-0-0-0-0-|---3---0-0-0-|

G|-------------|-------------|-------------|--------------||
D|-------------|-------------|-------------|-------------*||
A|-------------|-4---4-------|-------------|-------------*||
D|-0-0-0-0-0-0-|---3---0-0-0-|-1-4-1-0-0-0-|-0-0-0-1-1-1--||

G|------|---|---|---|---|---|---|---|
D|------|---|---|---|---|---|---|---|
A|------|---|---|---|---|---|---|---|
D|-0----|---|---|---|---|---|---|---|

Guitar Solo

G||--------------|-------------|-------------|-------------|
D||*-------------|-------------|-------------|-------------|
A||*-------------|-5---5-------|-------------|-5---5-------|
D||--0-0-0-0-0-0-|---3---0-0-0-|-0-0-0-0-0-0-|---3---0-0-0-|

G|-------------|-------------|-------------|-------------|
D|-------------|-------------|-------------|-------------|
A|-------------|-4---4-------|-1-----------|-3-----------|
D|-0-0-0-0-0-0-|---3---0-0-0-|---0-0-0-0-0-|---0-0-0-0-0-|

G|-------------|-------------|-------------|-------------|
D|-------------|-------------|-------------|-------------|
A|-------------|-5---5-------|-------------|-5---5-------|
D|-0-0-0-0-0-0-|---3---0-0-0-|-0-0-0-0-0-0-|---3---0-0-0-|
			      _________________________________________
			     |1.			   |2.
G|-------------|-------------|-------------|--------------||------|---|
D|-------------|-------------|-------------|-------------*||------|---|
A|-------------|-4---4-------|-7-----------|-8-----------*||------|---|
D|-0-0-0-0-0-0-|---3---0-0-0-|---0-0-0-0-0-|---0-0-0-0-0--||-0----|---|

Verse

G|-------------|--------------|--------------|---------------|
D|-------------|--------------|--------------|---------------|
A|-------------|--------------|--------------|---------------|
D|-0-0-0-0-0-0-|-12-8-7-0-0-0-|-0-0-0-11-8-7-|-0-0-0-13-10-8-|

G|-------------|--------------|--------------|---------------|
D|-------------|--------------|--------------|---------------|
A|-------------|--------------|--------------|-3-----3-------|
D|-0-0-0-0-0-0-|-12-8-7-0-0-0-|-6-0-6-0-3-6--|---6-3---6-2---|

G|-------------|--------------|--------------|---------------|
D|-------------|--------------|--------------|---------------|
A|-------------|--------------|--------------|---------------|
D|-0-0-0-0-0-0-|-12-8-7-0-0-0-|-0-0-0-11-8-7-|-0-0-0-13-10-8-|

G|-------------|--------------|--------------|---------------|
D|-------------|--------------|--------------|---------------|
A|-------------|--------------|--------------|---------------|
D|-0-0-0-0-0-0-|-12-8-7-0-0-0-|-5-5-5-5-5-5--|-5-6-6-6-6-6---|

G|-------------|--------------|--------------|---------------|
D|-------------|--------------|--------------|---------------|
A|-------------|--------------|--------------|---------------|
D|-0-0-0-0-0-0-|--------0-0-0-|-0-0-0--------|-0-0-0---------|

G|-------------|--------------|--------------|---------------|
D|-------------|--------------|--------------|---------------|
A|-------------|--------------|--------------|-3-----3-------|
D|-0-0-0-0-0-0-|--------0-0-0-|-6-0-6-0-3-6--|---6-3---6-2---|

G|-------------|--------------|--------------|---------------|
D|-------------|--------------|--------------|---------------|
A|-------------|--------------|--------------|---------------|
D|-0-0-0-0-0-0-|--------0-0-0-|-0-0-0--------|-0-0-0---------|

G|-------------|--------------|--------------|---------------|
D|-------------|--------------|--------------|---------------|
A|-------------|--------------|--------------|---------------|
D|-0-0-0-0-0-0-|--------0-0-0-|-5-5-5-5-5-5--|-5-6-6-6-6-6---|

Chorus

G||--------------|-------------|-------------|-------------|
D||*-------------|-------------|-------------|-------------|
A||*-------------|-------------|-------------|-------------|
D||--0-3-0-0-0-0-|-0-3-0-0-0-0-|-0-3-0-0-0-0-|-0-3-0-0-0-0-|

G|-------------|-------------|-------------|--------------||
D|-------------|-------------|-------------|-------------*||
A|-4---4-------|-4---4-------|-------------|-------------*||
D|---3---0-0-0-|---3---0-0-0-|-1-4-1-0-0-0-|-1-4-1-0-0-0--||

Breakdown

G||--------------|-------------|-------------|-------------|
D||*-------------|-------------|-------------|-------------|
A||*-------------|-5---5-------|-------------|-5---5-------|
D||--0-0-0-0-0-0-|---3---0-0-0-|-0-0-0-0-0-0-|---3---0-0-0-|

G|-------------|-------------|-------------|--------------||
D|-------------|-------------|-------------|-------------*||
A|-------------|-4---4-------|-------------|-------------*||
D|-0-0-0-0-0-0-|---3---0-0-0-|-1-4-1-0-0-0-|-0-0-0-1-1-1--||

Outro

G||--------------|--------------|--------------|---------------|
D||*-------------|--------------|--------------|---------------|
A||*-------------|--------------|--------------|---------------|
D||--0-0-0-0-0-0-|--------0-0-0-|-0-0-0--------|-0-0-0---------|

							     8x
G|-------------|--------------|--------------|----------------||-------------||
D|-------------|--------------|--------------|---------------*||-------------||
A|-------------|--------------|--------------|-3-----3-------*||-------------||
D|-0-0-0-0-0-0-|--------0-0-0-|-6-0-6-0-3-6--|---6-3---6-2----||-0-0-0-0-0-0-||

Enjoy!!!

| /  slide up
| \  slide down
| h  hammer-on
| p  pull-off
| ~  vibrato
| +  harmonic
| x  mute note
===================================================================================
            
Hard to play? Try these video lessons and learn fast. | Correct




comments powered by Disqus
↑ Back to top | Tablatures and chords are parodies/interpretations of the original songs. You may use it for private study, scholarship, research or language learning purposes only