» » »

Lamb Of God, Omerta Tabs (ver.1)

Artists:  A B C D E F G H I J K L M N O P Q R S T U V W X Y Z # 

Omerta Tabs (ver.1)

Lamb Of God Tabs
Rating:
0/5 (0 votes)
Omerta lessons Tabs too difficult? Try these video lessons and learn fast
                Tuning - dropped D

» main riff
E|-----------------------------------------|-------------------------------------|
B|-----------------------------------------|-------------------------------------|
G|-----------------------------------------|-------------------------------------|
D|-------------7-------------------6-------|------------9---------3-----3-2-7-7--|
A|--0-0--0-0-0-5-0-0-0--0-0--0-0-0-4-0-0-0-|-0-0--0-0-0-7-0-0-0-0-1-0-0-1-0-5-0--|
D|--0-0--0-0-0---0-0-0--0-0--0-0-0---0-0-0-|-0-0--0-0-0---0-0-0-0---0-0-------7--|
  pm...  .....   .....  ...  .....   .....   ...  .....   .......   ...

(second ending)
E|-------------------------|
G|-------------------------|
B|-------------------------|
D|----------6-----6-9------|
A|--0-0-0-0---0-0-----*7~--|
D|--0-0-0-0---0-0----------|
  pm.......   ...

» chorus
E|--------------------------------------------|-----------------------------|
B|--------------------------------------------|-----------------------------|
G|--------------------------------------------|-----------------------------|
D|--------------------------------------------|-----------------------------|
A|---3---------3---------3---------3----3-----|--3-----3-----3-----3---3----|
D|---3--6(gb)--3--6(gb)--3--6(gb)--3-6b-3-6b--|--3--0--3--0--3--0--3-0-3-0--|
   pm.         .         .         .    .        .     .     .     .   .

» double time riff
E|---------------------------------------------------------------------------|
B|---------------------------------------------------------------------------|
G|---------------------------------------------------------------------------|
D|---------------------------------------------------------------------------|
A|------------0-0-0-0-0-0-0-0-0-0-0-0-0-----------0-0-0-0-0-1-0-0-3-4-0-0-0--|
D|--6-3-0-3-6-0-0-0-0-0-0-0-0-0-0-0-0-0-6-3-0-3-6-0-0-0-0-0-1-0-0-3-4-0-0-0--|
            pm.........................           .........................

» breakdown riff
E|--------------------------------------------------|
B|--------------------------------------------------|
G|--------------------------------------------------|
D|--------------------------------------------------|
A|--6~--8-------3~--6-------5---0-------------------|
D|--6~--8--0-0--3~--6--0-0--5~~p0---0--0--0--0-0-0--|
         pm...         ...          .  .  .  .....

then repeat the main riff, but a bit slower, listen for timing, enjoy!
            

comments powered by Disqus
↑ Back to top | Lamb Of God Tabs for Omerta. Lyrics for acoustic guitar and electric guitar. Tablatures and chords are parodies/interpretations of the original songs. You may use it for private study, scholarship, research or language learning purposes only