>
 >
11th Hour

11th Hour Guitar Tabs

Lamb Of God - 11th Hour chords, tabs, tablatures, lyrics

Guitar lessons | Add/correct | Request | Top 50 tabs Artists:  A B C D E F G H I J K L M N O P Q R S T U V W X Y Z 0-9

11th Hour Guitar Tabs – Lamb Of God

CD, Sheet music, Poster

Do you like 11th Hour? Share with your friends now
Bass TabsTabsTabs v2Tabs v3Tabs v4Tabs v5Tabs v6Tabs v7
tuning:drop d

E----------------------------------------------------------------|
B----------------------------------------------------------------|
G----------------------------------------------------------------| all x 2
D-------------------------x3--then-------------------------------|
A-12-----13-12----------------------12-----13-12--12/11--11/10---|
D---13-12-----13-0-000-0-0-0----------13-12-----13-----12-----11-|
     m  m      m m mmm m m m           m m       m      m      m

E----------------------------------------------------|
B----------------------------------------------------|
G----------------------------------------------------|
D----------------------------------------------8---7-|
A-12-----13-12--12/11--11/10--8-7-6------5-----6---5-|
D---13-12-----13-----12-----11-----8-7-6---6-5---0---|
     m  m      m      m      mm m mm m m m m m   m

E-------------------------------------------------|
B-------------------------------------------------|
G-------------------------------------------------|  x4
D-------------------------------------------8---7-|
A-0-0-0-1-0-0-0-0-0-1-0-4-0-0-0-1-0-0-5-----6---5-|
D-0-0-0-1-0-0-0-0-0-1-0-4-0-0-0-1-0-0---6-5---0---|
  m m m   m m m m m   m   m m m   m m   m m   m

E--------------------------------------------------|
B--------------------------------------------------|
G--------------------------------------------------|
D--------------------------------------------------|
A--------------------------------------3\7-7-7-8-8-|
D-4-444-4-4-4---444-4-4-4--3-333-3-3-3-3\7-7-7-7-7-|
  m mmm m m m   mmm m m m  m mmm m m m     m

E-------------------------------------------------|
B-------------------------------------------------|
G-------------------------------------------------|  x4
D-------------------------------------------8---7-|
A-0-0-0-1-0-0-0-0-0-1-0-4-0-0-0-1-0-0-5-----6---5-|
D-0-0-0-1-0-0-0-0-0-1-0-4-0-0-0-1-0-0---6-5---0---|
  m m m   m m m m m   m   m m m   m m   m m   m

E--------------------------------------------------|
B--------------------------------------------------|
G--------------------------------------------------|
D--------------------------------------------------|
A--------------------------------------3\7-7-7-8-8-|
D-4-444-4-4-4---444-4-4-4--3-333-3-3-3-3\7-7-7-7-7-|
  m mmm m m m   mmm m m m  m mmm m m m     m


E-------------------------------------------|
B-------------------------------------------|
G-------------9-9-------------9-9-------9-9-|
D-------------0-0-------------0-0-------0-0-|
A-------------------------------------------|
D-0-000-0-0-0-----0-000-0-0-0-----0-000-----|
  m mmm m m m     m mmm m m m     m mmm

E---------------------------------------------------|
B--------------------------------------10p9---11b---|
G------------10-10------------10-10---------9-----9-|
D-------------0--0-------------0--0-----------------|
A---------------------------------------------------|
D-8-888-8-8-8------8-888-8-8-8----------------------|
  m mmm m m m      m mmm m m m

E-----------------------------------------------|
B-----------------------------------------------|
G-------------9-9-------------9-9-------9-9-----|
D-------------0-0-------------0-0-------0-0-----|
A-----------------------------------------------|
D-0-000-0-0-0-----0-000-0-0-0-----0-000---------|
  m mmm m m m     m mmm m m m     m mmm

E------------------------------------------------|
B------------------------------------------------|
G------------10-10------------10-10--------------|
D-------------0--0-------------0--0--7-5-----8---|
A----------------------------------------8-------|
D-8-888-8-8-8------8-888-8-8-8-------------8---7-|
  m mmm m m m      m mmm m m m       m m m m m m

E---------------------------------------|
B---------------------------------------|
G---------------------------------------|
D---------------------------------------|
A-------------7h8-------------------7h8-|
D-0-000-0-0-0-----0-000-0-0-0-0-0-0-0---|
  m mmm m m m     m mmm m m m m m m

continued from above...sorry it wouldn't all fit
E---------------------------------------------------|
B---------------------------------------------------|
G---------------------------------------------------|
D---------------------------------------------------|
A-------------------7h8-------------------7h8-8p7-7-|
D-0-0-0-8-888-8-8-8-----8-8-8-5-5-5-5-5-5-----------|
  m m m m mmm m m m     m m m m m m m m m

E-------------------------------------------|
B-------------------------------------------|
G-------------9-9-------------9-9-------9-9-|
D-------------0-0-------------0-0-------0-0-|
A-------------------------------------------|
D-0-000-0-0-0-----0-000-0-0-0-----0-000-----|
  m mmm m m m     m mmm m m m     m mmm

E------------------------------------------------|
B-----------------------------------10p9---11b---|
G------------10-10------------10-10------9-----9-|
D-------------0--0-------------0--0--------------|
A------------------------------------------------|
D-8-888-8-8-8------8-888-8-8-8-------------------|
  m mmm m m m      m mmm m m m

E-------------------------------------------|
B-------------------------------------------|
G-------------9-9-------------9-9-------9-9-|
D-------------0-0-------------0-0-------0-0-|
A-------------------------------------------|
D-0-000-0-0-0-----0-000-0-0-0-----0-000-----|
  m mmm m m m     m mmm m m m     m mmm

E------------------------------------------------|
B------------------------------------------------|
G-----------10-10-------------10-10--------------|
D------------0--0--------------0--0--7-5-----8---|
A----------------------------------------8-------|
D-8-888-8-8-8------8-888-8-8-8-------------8---7-|
  m mmm m m m      m mmm m m m       m m m m m m

E-------------------------------------------|
B-------------------------------------------|
G-------------9-9-------------9-9-------9-9-|
D-------------0-0-------------0-0-------0-0-|
A-------------------------------------------|
D-0-000-0-0-0-----0-000-0-0-0-----0-000-----|
  m mmm m m m     m mmm m m m     m mmm

E------------------------------------------------------------|
B------------------------------------------------------------|
G-----------10-10-------------10-10--------------------------|
D------------0--0--------------0--0--7-5-----8---3-2---5-----|
A----------------------------------------8-----0-----5---8-7-|
D-8-888-8-8-8------8-888-8-8-8-------------8-----------------|
  m mmm m m m      m mmm m m m       m m m m m m m m m m m m

E----------------------------------------------------------|
B----------------------------------------------------------|
G----------------------------------------------------------|
D---------7---5-------10p8---8p7-----------7---5-----------|
A-----8--------------------------------8-------------------|
D-000---0---0---0-000------0-----0-000---0---0---0-3b-0-6b-|
  mmm   m   m   m mmm      m     m mmm   m   m   m    m

E------------------------------------------------------|
B------------------------------------------------------|
G------------------------------------------------------|
D---------7---5------------------------7---5-----------|
A-----8-----------7---8---7b-------8-------------------|
D-888---8---8---8---8---8------888---8---8---8-3b-0-6b-|
  mmm   m   m   m   m   m      mmm   m   m   m    m

E-----------------------------------------------|
B--------------------------------------------5~-|
G--------------------------------------------8~-|
D-----------------x3-----------then-0--0--0-----|
A-----------------------------------0--0--0-----|
D-00000--00000--00000--0000000------0--0--0-----|
  mmmmm  mmmmm  mmmmm  mmmmmmm      m  m  m

E---------------------------------|
B-------5-------5-------5-------5-|
G-------8-------8-------8-------8-| x8
D---------------------------------|
A---------------------------------|
D-00000---00000---00000---00000---|
  mmmmm   mmmmm   mmmmm   mmmmm

the rest is just repeated stuff, figure it out.
m=palm mute
\=slide up
/=slide down





Comments


Popular Lamb Of God tabs & chords
11th Hour Bass Tabs
Faded Line 2 Bass Tabs
Foot To The Throat Bass Tabs
Omerta 3 Bass Tabs
Grace 1 Tabs
Hourglass 4 Tabs
In Defense Of Our Good Name Tabs
King Me Tabs
Now Youve Got Something To Die For Intro Tabs
Omerta 6 Tabs


Song lyrics



↑ Back to top | Tablatures and chords are parodies/interpretations of the original songs. You may use it for private study, scholarship, research or language learning purposes only
© 2014 AZChords.com Contact us | Privacy policy | DMCA | Add/correct tabs | Request tabs | Top 50 tabs