» » »

Again We Rise Tabs (ver.1)

Artists:  A B C D E F G H I J K L M N O P Q R S T U V W X Y Z # 

Again We Rise Tabs (ver.1)

Lamb Of God
Rating:
4/5 (12 votes)

Tabs too difficult? Try these video lessons and learn fast.
                                            AGAIN WE RISE
                             Lamb Of God
                              Sacrament

drop D tunning
low to high DADGBE


INTRO
 FAST=146
0:00
W/heavy reverb & phaser           X2
E-----------------------------------|---------------------------------------|
B----15-15---15-15----15-15----15-15|----14-14----14-14---14-14---14-14/----|
G-----------------------------------|---------------------------------------|
D-----------------------------------|---------------------------------------|
A-17------17-------17-------17------|-17-------17-------17------17----------|
D-----------------------------------|---------------------------------------|

E-------------------------------------|-------------------------------------|
B-/17-17-17-17-17-17-18-18-18-18-18-18|-------------------------------------|
G-------------------------------------|-------------------------------------|
D-------------------------------------|-0~----------------------------------|
A-------------------------------------|-0~--0-0-0---------------------------|
D-------------------------------------|-0~--0-0-0----------/10\-------------|

0:13                                  |----------------------
               X4              X2     \/      X2      dont play
E---------------|---------------|---------------|     on 4th time
B---------------|---------------|---------------|
G---------------|---------------|---------------|
D---------------|---------------|---------------|X4
A---------------|---------------|---------------|
D-12-15-12-0-0-0|-11-15-11-0-0-0|-13-17-13-0-0-0|

Verse 0:36
E---------------------------|--------------------------|---------------------|
B---------------------------|--------------------------|---------------------|
G---------------------------|--------------------------|---------------------|
D---7-5-4-----8-7-----------|--------------------------|---------------------|
A---------5-4-----5-6h9p6-10|----------------13-12-----|----------13-12------|
D-4-------------------------|0-0-0-0-0-0-12------0-0-0-|0-0-0-11-------0-0-0-|


                               X2       1st time
E---------|---------------------|-----------------------------|
B---------|---------------------|-----------------------------|
G---------|---------------------|-----------------------------|
D---------|---------------------|-----------------------------|
A----15-12|----------------13-12|------------------3-----3----|
D-13------|-0-0-0-0-0-0-12------|0-0-0-6-0-6-0-3-6---6-3---6-2|


        2nd time              X2
E------------------------------|
B------------------------------|
G------------------------------|
D-9-9-9-9-9-9-9/-10-10-10-10-10|
A-5-5-5-5-5-5-5/--6--6--6--6--6|
D-5-5-5-5-5-5-5/--6--6--6--6--6|

2:15
E-----|----------------------|--------------------------|
B-----|----------------------|--------------------------|
G-----|----------------------|--------------------------|
D-/12\|------------7*-8*-----|------7*-8-7h8p7p5---5----|
A-/12\|5-5-5-5-5-5---5--5-5-5|5-5-5---5----------8---8-7|
D-----|----------------------|--------------------------|

E-------------------------|----------------------------|
B-------------------------|----------------------------|
G-------------------------|----------------------------|
D------------7*---8*------|------7*---8-7h8p7p5---5----|
A-4-4-4-4-4-4----4---4-4-4|4-4-4----4-----------8---8-7|
D-------------------------|----------------------------|


Solo
2:30
E-------------------------------|-------------------------------------------|
B-------5h6p5--5-----------5---6|-8-----/8--6h8p6\5-6p5---5-----------------|
G-7--/7-------7-7-6--6-------7--|-----------------------7---7-6---6-7-------|
D------------------8---8-8------|-------------------------------8-----------|
A-------------------------------|-------------------------------------------|
D-------------------------------|-------------------------------------------|

E---------------------------------------------|-----------------------------|
B--------------------5h6p5---5----------------|---8-------------------------|
G-7-----7\2---/7-6-7-------7---7-6---6--------|-----------------------------|
D----------------------------------8---8-7-5--|-----------------------------|
A--------------------------------------------8|-----------------------------|
D---------------------------------------------|-----------------------------|

all you need for the whole song is there
any problems with this i'd be happy to fix it
            
Tabs too difficult? Try these video lessons and learn fast.




comments powered by Disqus
↑ Back to top | Tablatures and chords are parodies/interpretations of the original songs. You may use it for private study, scholarship, research or language learning purposes only