>
 >
Again We Rise 1

Again We Rise 1 Guitar Tabs

Lamb Of God - Again We Rise 1 chords, tabs, tablatures, lyrics

Guitar lessons | Add/correct | Request | Top 50 tabs Artists:  A B C D E F G H I J K L M N O P Q R S T U V W X Y Z 0-9

Again We Rise 1 Guitar Tabs – Lamb Of God

CD, Sheet music, Poster

Do you like Again We Rise 1? Share with your friends now
Bass TabsBass Tabs v2TabsTabs v2Tabs v3
Band: Lamb Of God


Intro-
Guitar 1
e|-10-10-10-10-10-10-10-10-10-10-10-10-10-10-10-10-10-10-10-10-10-10-10-10-|
B|-15-15-15-15-15-15-15-15-15-15-15-15-15-15-15-15-15-15-15-15-15-15-15-15-|
G|-------------------------------------------------------------------------|
D|-------------------------------------------------------------------------|
A|-------------------------------------------------------------------------|
D|-------------------------------------------------------------------------|

                                                                            X2
e|-10-10-10-10-10-10-10-10-10-10-10-10-12-12-12-12-12-12-13-13-13-13-13-13-|
B|-14-14-14-14-14-14-14-14-14-14-14-14-17-17-17-17-17-17-18-18-18-18-18-18-|
G|-------------------------------------------------------------------------|
D|-------------------------------------------------------------------------|
A|-------------------------------------------------------------------------|
D|-------------------------------------------------------------------------|

Guitar2
e|------------------------|
B|------------------------|
G|------------------------| (Plays on second time)
D|-0----------------0-0-0-|
A|-0----------------0-0-0-|
D|-0----------------0-0-0-|

                    * * *
Riff 1
e|-10-10-10-10-10-10-10-10-10-10-10-10-10-10-10-10-10-10-10-10-10-10-10-10-|
B|-15-15-15-15-15-15-15-15-15-15-15-15-15-15-15-15-15-15-15-15-15-15-15-15-|
G|-------------------------------------------------------------------------|
D|-------------------------------------------------------------------------|
A|-------------------------------------------------------------------------|
D|-------------------------------------------------------------------------|
                                                                             X3

e|-10-10-10-10-10-10-10-10-10-10-10-10-12-12-12-12-12-12-13-13-13-13-13-13-|
B|-14-14-14-14-14-14-14-14-14-14-14-14-17-17-17-17-17-17-18-18-18-18-18-18-|
G|-------------------------------------------------------------------------|
D|-------------------------------------------------------------------------|
A|-------------------------------------------------------------------------|
D|-------------------------------------------------------------------------|

Guitar2
e|---------------------------------------------------------------------------------------------|
B|---------------------------------------------------------------------------------------------|

X4
D|---------------------------------------------------------------------------------------------|
A|-5h8p5-------5h8p5-------5h8p5-------5h8p5-------4h7p4-------4h7p4-------6h10p6-------6h10p6-|
D|-------0-0-0-------0-0-0-------0-0-0-------0-0-0-------0-0-0-------0-0-0--------0-0-0--------|
         * * *       * * *       * * *       * * *       * * *       * * *        * * *

Guitar3
e|---------------------------------------------------------------------------------------------|
B|---------------------------------------------------------------------------------------------|

X4
D|---------------------------------------------------------------------------------------------|
A|-5h8p5-------5h8p5-------5h8p5-------5h8p5-------4h7p4-------4h7p4-------6h10p6-------6h10p6-|
D|-------0-0-0-------0-0-0-------0-0-0-------0-0-0-------0-0-0-------0-0-0--------0-0-0--------|
         * * *       * * *       * * *       * * *       * * *       * * *        * * *

Guitar1
e|-10-10-10-10-10-10-10-10-10-10-10-10-10-10-10-10-10-10-10-10-10-10-10-10-|
B|-15-15-15-15-15-15-15-15-15-15-15-15-15-15-15-15-15-15-15-15-15-15-15-15-|
G|-------------------------------------------------------------------------|
D|-------------------------------------------------------------------------|
A|-------------------------------------------------------------------------|
D|-------------------------------------------------------------------------|


e|-10-10-10-10-10-10-10-10-10-10-10-10-|
B|-14-14-14-14-14-14-14-14-14-14-14-14-|
G|-------------------------------------|
D|-------------------------------------|
A|-------------------------------------|
D|-------------------------------------|

Guitar 2
e|---------------------------|
B|---------------------------|
G|---------------------------|
D|-7-5-4-----8-7-----6-----7-|
A|-------6-5-----5/6---5-6---|
D|---------------------------|

Riff2
Both Guitar 2 and 3
e|-------------------------------------------------------------------------------------|
B|-------------------------------------------------------------------------------------|
G|-------------------------------------------------------------------------------------|
D|-------------------------------------------------------------------------------------|
A|----------------13-12----------------13-12----------15-13----------------13-12-------|
D|-0-0-0-0-0-0-12-------0-0-0-0-0-0-12-------0-0-0-13-------0-0-0-0-0-0-12-------0-0-0-|
   * * * * * *          * * * * * *          * * *          * * * * * *          * * *

Ending one                   Ending two
e|-------------------------||-------------------------|
B|-------------------------||-------------------------|
G|-------------------------||-------------------------|
D|-------------------------||-4-4-4-4-4-4-5-5-5-5-5-5-| X2
A|-------------3-----3-----||-5-5-5-5-5-5-6-6-6-6-6-6-|
D|-6p0-6p0-6p0---5-4---5-4-||-----------------------0-|

Riff1
Riff2
Riff1(This time without the ending)

Riff3
e|--------------------------------------------------------------------------------------------------------|
B|--------------------------------------------------------------------------------------------------------|

X2
D|--------------------------------------------------------------------------------------------------------|
A|-------------------5h8p5-------------------5h8p5-------------------4h7p4-------6h10p9-------------1---1-|
D|-0-0-0-0-0-0-0-0-0-------0-0-0-0-0-0-0-0-0-------0-0-0-0-0-0-0-0-0-------0-0-0--------0-0-0-0-0-0-1---1-|
   * * * * * * * * *       * * * * * * * * *       * * * * * * * * *       * * *        ** * * * *

Intro

Guitar2
e|-----------------------------------------------------------------------------------------------|
B|-----------------------------------------------------------------------------------------------|

X3
D|-----------------------------------------------------------------------------------------------|
A|-----------------------------------------------4-4-4-4-4-4-4-4-4-4-4-4-1-1-1-1-1-1-1-1-1-5-5-5-|
D|-0-0-0-0-0-0-0-0-0-0-0-0-0-0-0-0-0-0-0-0-0-0-0-0-0-0-0-0-0-0-0-0-0-0-0-0-0-0-0-0-0-0-0-0-0-0-0-|
   * * * * * * * * * * * * * * * * * * * * * * * * * * * * * * * * * * * * * * * * * * * ** * *

Guitar3
e|------------------------------------------------------------------------------------------------------|
B|------------------------------------------------------------------------------------------------------|
G|------------------------------------------------------------------------------------------------------|
D|-------------7---8-------------7---8-7h8p7-5---5----------------7---8-------------7---8-7h8p7-5---5---|
A|-5-5-5-5-5-5---5---5-5-5-5-5-5---5-----------8---8--4-4-4-4-4-4---4---4-4-4-4-4-4---4-----------8---8-|
D|------------------------------------------------------------------------------------------------------|
   * * * * * *   *   * * * * * *   *         *   *    * * * * * *   *   * * * * * *   *  
      *   *
e|----------------------------------------------------------------------------------------------------------|
B|----------------------------------------------------------------------------------------------------------|
G|----------------------------------------------------------------------------------------------------------|
D|-------------7---8-------------7---8-7h8p7-5---5----------------7---8-------7---8-7h8p7-5---5-------5-7-8-|
A|-5-5-5-5-5-5---5---5-5-5-5-5-5---5-----------8---8--4-4-4-4-4-4---4---4-4-4---4-----------8---8-7-8-------|
D|----------------------------------------------------------------------------------------------------------|
   * * * * * *   *   * * * * * *   *         *   *    * * * * * *   *   * * *   *        
*   *

Solo
e|------------------------------------------------------------------|
B|------------------------------------------------------------------|
G|----------------------------------------------------12b-------12b-|
D|-/12b---11-12-14-14h15p14-12h14p12-11-12-11-8-11-12---------------|
A|------------------------------------------------------------------|
D|------------------------------------------------------------------|

e|--------------------------------------------------------------------|
B|--------------------------------------------------------------------|
G|--9h10p9-7h9p7------------------------------------------------------|
D|---------------10-9-7-9-10-11-12b%----12-11-12-14-14h15p14-12h14p12-|
A|--------------------------------------------------------------------|
D|--------------------------------------------------------------------|

e|----------------------------|
B|----------------------------|
G|------------------12b--12b--|
D|-12-11-8-7-8-10-------------|
A|----------------------------|
D|----------------------------|

Riff2

Riff4
e|---------------------------------------------------------------------------------------------------|
B|---------------------------------------------------------------------------------------------------|
G|---------------------------------------------------------------------------------------------------|
D|-0-0-0-0-0-0---0-0-0-0-0-0---0-0-0-0---0-0-0-0-0-0---0-0-0-0-0-0---0-0-0-0-------------------------|
A|-0-0-0-0-0-0---0-0-0-0-0-0---0-0-0-0---0-0-0-0-0-0---0-0-0-0-0-0---0-0-0-0-------------3-----3-----|
D|-0-0-0-0-0-0---0-0-0-0-0-0---0-0-0-0---0-0-0-0-0-0---0-0-0-0-0-0---0-0-0-0-6p0-6p0-6p0---5-4---5-4-|
   * * * * * *   * * * * * *   * * * *   * * * * * *   * * * * * *   * * * *
e|---------------------------------------------------------------------------------------------------|
B|---------------------------------------------------------------------------------------------------|
G|---------------------------------------------------------------------------------------------------|
D|-0-0-0-0-0-0---0-0-0-0-0-0---0-0-0-0---0-0-0-0-0-0---0-0-0-0-0-0---0-0-0-0-4-4-4-4-4-4-5-5-5-5-5-5-|
A|-0-0-0-0-0-0---0-0-0-0-0-0---0-0-0-0---0-0-0-0-0-0---0-0-0-0-0-0---0-0-0-0-5-5-5-5-5-5-6-6-6-6-6-6-|
D|-0-0-0-0-0-0---0-0-0-0-0-0---0-0-0-0---0-0-0-0-0-0---0-0-0-0-0-0---0-0-0-0-----------------------0-|
   * * * * * *   * * * * * *   * * * *   * * * * * *   * * * * * *   * * * *

Riff1


Riff5
Guitar2
e|--------------------------------------------------------------------------------------------------------|
B|--------------------------------------------------------------------------------------------------------|
G|--------------------------------------------------------------------------------------------------------|
D|--------------------------------------------------------------------------------------------------------|
A|-------------------5h8p5-------------------5h8p5-------------------4h7p4-------6h10p6-------------1---1-|
D|-0-0-0-0-0-0-0-0-0-------0-0-0-0-0-0-0-0-0-------0-0-0-0-0-0-0-0-0-------0-0-0--------0-0-0-0-0-0-1---1-|
   * * * * * * * * *       * * * * * * * * *       * * * * * * * * *       * * *        ** * * * *
Guitar3                                                                                  
                      X2
e|-------------------------------------------------------------------------------------------------------------|
B|-------------------------------------------------------------------------------------------------------------|
G|-------------------------------------------------------------------------------------------------------------|
D|-------------------------------------------------------------------------------------------------------------|
A|-------------------8h12p8-------------------8h12p8-------------------7h10p7-------10h13p10-------------1---1-|
D|-0-0-0-0-0-0-0-0-0-------0-0-0-0-0-0-0-0-0-------0-0-0-0-0-0-0-0-0----------0-0-0----------0-0-0-0-0-0-1---1-|
   * * * * * * * * *       * * * * * * * * *       * * * * * * * * *          * * *      
   * * * * * *

Riff4(Only Guitar2)

Guitar3 behind Guitar2

e|-----------------------------------------------------------|
B|-------------------------(6)----(2)------------------------|
G|------------------10------6------9------3-----(3)------3---|
D|----------7------(7)-------------------(2)-----5------(5)--|
A|--5------(5)-----------------------------------------------|
D|-(7)-------------------------------------------------------|





Comments


Popular Lamb Of God tabs & chords
Black Label Bass Tabs
Ruin Bass Tabs
Terror&Hubris In House Of Frank Pollard Bass Tabs
Again We Rise 2 Tabs
Blood Of The Scribe 1 Tabs
Everything To Nothing Tabs
Hourglass 4 Tabs
Omerta Tabs
Set To Fail 1 Tabs
Walk With Me In Hell 1 Tabs


Song lyrics



↑ Back to top | Tablatures and chords are parodies/interpretations of the original songs. You may use it for private study, scholarship, research or language learning purposes only
© 2014 AZChords.com Contact us | Privacy policy | DMCA | Add/correct tabs | Request tabs | Top 50 tabs