>
 >
Better Than 1

Better Than 1 Guitar Tabs

John Butler Trio - Better Than 1 chords, tabs, tablatures, lyrics

Guitar lessons | Add/correct | Request | Top 50 tabs Artists:  A B C D E F G H I J K L M N O P Q R S T U V W X Y Z 0-9

Better Than 1 Guitar Tabs – John Butler Trio

CD, Sheet music, Poster

Do you like Better Than 1? Share with your friends now
Bass TabsChordsTabsTabs v2Ukulele
Gtr I (D G D G B D) - 'Banjo'
 Intro
  H=110                             (Em7)
 2/2  
   H    H      a a Q  E E E Q.      Q  Q  E E E E
|-/5----5----|-----5-------------||----0------0---|
|------------|--------0-----0----||----0--------0-|
|-/7----5----|-4h5p4----0h2------||-------0h2-----|
|------------|-------------------||-2-------------|
|------------|-------------------||---------------|
|------------|-------------------||---------------|


  Q  Q  Q  Q    Q  Q  E E E E   Q  Q  Q  Q
|----0-----0--|----0------0---|----0-----0----|
|-1--0--------|----0--------0-|-1--0----------|
|-------2--0--|-------0h2-----|-------2--0----|
|-------------|-2-------------|---------------|
|-------------|---------------|---------------|
|-------------|---------------|---------------|


  (G)
  Q  Q  E E E E   Q  Q  Q  Q    a Q  E E Q  Q    E E E E E E Q
|----0------0---|----0-----0--|---0--0------0--|-----0----------|
|----0--------0-|-1--0-----0--|-2s3----0-1-----|-0h1---0-1p0----|
|-------0h2-----|-------2-----|----------------|-------------2--|
|-0-------------|-------------|----------------|----------------|
|---------------|-------------|----------------|----------------|
|---------------|-------------|----------------|----------------|


  (Em7)
  Q  Q  E E E E   Q  Q  Q  Q    Q  Q  E E E E   Q  Q  Q  Q
|----0------0---|----0-----0--|----0------0---|----0-----0--|
|----0--------0-|-1--0--------|----0--------0-|-1--0--------|
|-------0h2-----|-------2--0--|-------0h2-----|-------2--0--|
|-2-------------|-------------|-2-------------|-------------|
|---------------|-------------|---------------|-------------|
|---------------|-------------|---------------|-------------|


  (G)
  Q  Q  E E E E   Q  Q  Q  Q    Q  Q  E E E E   Q  Q  Q  Q
|----0------0---|----0-----0--|----0------0---|----0-----0--||
|----0--------0-|-1--0--------|----0--------0-|-1--0--------||
|-------0h2-----|-------2--0--|-------0h2-----|-------2--0--||
|-0-------------|-------------|-0-------------|-------------||
|---------------|-------------|---------------|-------------||
|---------------|-------------|---------------|-------------||


   Verse
    $
    (Em7)
    Q  Q  E E E E   Q  Q  Q  Q    Q  Q  E E E E   Q  Q  Q  Q
||-----0------0---|----0-----0--|----0------0---|----0-----0-|
||o----0--------0-|-1--0--------|----0--------0-|-1--0-------|
||--2-----0h2-----|-------2--0--|-2-----0h2-----|-------2--0-|
||--2-------------|-------------|-2-------------|------------|
||o---------------|-------------|---------------|------------|
||----------------|-------------|---------------|------------|


  (G)
  Q  Q  E E E E   Q  Q  Q  Q    Q  Q  E E E E   Q  Q  Q  Q
|----0------0---|----0-----0--|----0------0---|----0-----0--|
|----0--------0-|-1--0--------|----0--------0-|-1--0--------|
|-------0h2-----|-------2--0--|-------0h2-----|-------2--0--|
|-0-------------|-------------|-0-------------|-------------|
|---------------|-------------|---------------|-------------|
|---------------|-------------|---------------|-------------|


  (Em7)
  Q  Q  E E E E   Q  Q  Q  Q    Q  Q  E E E E   Q  Q  Q  Q
|----0------0---|----0-----0--|----0------0---|----0-----0--|
|----0--------0-|-1--0--------|----0--------0-|-1--0--------|
|-2-----0h2-----|-------2--0--|-2-----0h2-----|-------2--0--|
|-2-------------|-------------|-2-------------|-------------|
|---------------|-------------|---------------|-------------|
|---------------|-------------|---------------|-------------|


                                                    To Coda
  (G)
  Q  Q  E E E E   Q  Q  Q  Q    Q  Q  E E E E   Q  Q  Q  Q
|----0------0---|----0-----0--|----0------0---|----0-----0--||
|----0--------0-|-1--0--------|----0--------0-|-1--0--------||
|-------0h2-----|-------2--0--|-------0h2-----|-------2--0--||
|-0-------------|-------------|-0-------------|-------------||
|---------------|-------------|---------------|-------------||
|---------------|-------------|---------------|-------------||


 Chorus
  (Em7)
  Q  Q  E E E E   Q  Q  Q  Q    Q  Q  E E E E   Q  Q  Q  Q
|----0------0---|----0-----0--|----0------0---|----0-----0--|
|----0--------0-|-1--0--------|----0--------0-|-1--0--------|
|-2-----0h2-----|-------2--0--|-2-----0h2-----|-------2--0--|
|-2-------------|-------------|-2-------------|-------------|
|---------------|-------------|---------------|-------------|
|---------------|-------------|---------------|-------------|


  (G)
  Q  Q  E E E E   Q  Q  Q  Q     Q  E E Q  E E   E E Q  E E Q
|----0------0---|----0-----0--|-----0------0---|------------0--|
|----0--------0-|-1--0-----0--|-/3----0-1----0-|-1p0----1p0-0--|
|-------0h2-----|-------2-----|----------------|-----2---------|
|-0-------------|-------------|----------------|---------------|
|---------------|-------------|----------------|---------------|
|---------------|-------------|----------------|---------------|


  (Em7)
  Q  Q  E E E E   Q  Q  Q  Q    Q  Q  E E E E   Q  Q  Q  Q
|----0------0---|----0-----0--|----0------0---|----0-----0--|
|----0--------0-|-1--0--------|----0--------0-|-1--0--------|
|-2-----0h2-----|-------2--0--|-2-----0h2-----|-------2--0--|
|-2-------------|-------------|-2-------------|-------------|
|---------------|-------------|---------------|-------------|
|---------------|-------------|---------------|-------------|


                                                1.
  (G)
  Q  Q  E E E E   Q  Q  Q  Q     Q  E E Q  E E   E E Q  E E Q
|----0------0---|----0-----0--|-----0------0---|------------0---||
|----0--------0-|-1--0-----0--|-/3----0-1----0-|-1p0----1p0-0--o||
|-------0h2-----|-------2-----|----------------|-----2----------||
|-0-------------|-------------|----------------|----------------||
|---------------|-------------|----------------|---------------o||
|---------------|-------------|----------------|----------------||


                  Bridge
  2.
                   (G/C)
  E E Q  E E Q     E E Q  E E E E
|---------------||-----0------0---|
|-1p0----1p0----||-----0--------0-|
|-----2---------||---0------5-----|
|------------0--||--------0-------|
|---------------||-5--------------|
|---------------||----------------|


                (Asus2)
  Q  Q  Q  Q    E E Q  E E E E   Q  Q  E E Q
|----------0--|-----9------9---|----9------0--|
|----------0--|---0----------0-|----0----0----|
|-5--4--5-----|----------------|--------------|
|-------------|-7------0-7-----|-7-----7------|
|-------------|----------------|--------------|
|-------------|----------------|--------------|


  (Gadd9)                                         (G/F#)
  Q  Q  E E E E   Q  Q  E E Q    E E E E E E Q    E E E E E E Q
|----7------7---|----7------7--|-----7-------0--|-----0-------0--|
|----0--------0-|----0----0----|-------0---0----|-------0---0----|
|---------------|--------------|---0-----0------|---0-----0------|
|-5-----0-5-----|-5-----5------|-0--------------|-4--------------|
|---------------|--------------|----------------|----------------|
|---------------|--------------|----------------|----------------|


  (G/C)                          (Asus2)
  E E Q  E E E E   Q  Q  Q  Q    E E Q  E E E E   Q  Q  E E Q
|-----0------0---|----------0--|-----9------9---|----9------0--|
|-----0--------0-|----------0--|---0----------0-|----0----0----|
|---0------5-----|-5--4--5-----|----------------|--------------|
|--------0-------|-------------|-7------0-7-----|-7-----7------|
|-5--------------|-------------|----------------|--------------|
|----------------|-------------|----------------|--------------|


    (Gadd9)                                       (G/F#)
  Q  Q  E E E E   Q  Q  E E Q    E E E E E E Q    E E E E E E Q
|----7------7---|----7------7--|-0-----------0--|-----0-------0--|
|----0--------0-|----0----0----|-------0---0----|-------0---0----|
|---------------|--------------|---0-2---0------|---0-----0------|
|-5-----0-5-----|-5-----5------|----------------|-4--------------|
|---------------|--------------|----------------|----------------|
|---------------|--------------|----------------|----------------|


  (G/C)                          (Asus2)
  E E Q  E E E E   Q  Q  Q  Q    E E Q  E E E E   Q  Q  E E Q
|-----0------0---|----------0--|-----9------9---|----9------0--|
|-----0--------0-|----------0--|---0----------0-|----0----0----|
|---0------5-----|-5--4--5-----|----------------|--------------|
|--------0-------|-------------|-7------0-7-----|-7-----7------|
|-5--------------|-------------|----------------|--------------|
|----------------|-------------|----------------|--------------|


  (Gadd9)                                        (G/F#)
  Q  Q  E E E E   Q  Q  E E Q    Q  Q  E E E E   Q  Q  E E Q
|----7------7---|----7------7--|----7----------|----0------0--|
|----0--------0-|----0----0----|----0--------0-|----0----0----|
|---------------|--------------|---------0-2---|-------0------|
|-5-----0-5-----|-5-----5------|-5-----0-------|-4------------|
|---------------|--------------|---------------|--------------|
|---------------|--------------|---------------|--------------|


  (G/C)                          (Asus2)
  E E Q  E E E E   Q  Q  Q  Q    E E Q  E E E E   Q  Q  E E Q
|-----0------0---|----------0--|-----9------9---|----9------0--|
|-----0--------0-|----------0--|---0----------0-|----0----0----|
|---0------5-----|-5--4--5-----|----------------|--------------|
|--------0-------|-------------|-7------0-7-----|-7-----7------|
|-5--------------|-------------|----------------|--------------|
|----------------|-------------|----------------|--------------|


  (Gadd9)                                          (G/F#)
  Q  Q  E E E E   Q  Q  E E Q    E E E E E E E E   E E E E E E Q
|----7------7---|----7------7--|-----7-------7---|-----7-------0--||
|----0--------0-|----0----0----|---0---0---0---0-|---0---0---0----||
|---------------|--------------|---------0-------|---------0------||
|-5-----0-5-----|-5-----5------|-5---------------|-4--------------||
|---------------|--------------|-----------------|----------------||
|---------------|--------------|-----------------|----------------||


 Solo
  (Em7)
  Q  Q  E E E E   Q  Q  Q  Q    Q  Q  E E E E   Q  Q  Q  Q
|----0------0---|----0-----0--|----0------0---|----0-----0--|
|----0--------0-|-1--0--------|----0--------0-|-1--0--------|
|-------0h2-----|-------2--0--|-2-----0h2-----|-------2--0--|
|-2-------------|-------------|-2-------------|-------------|
|---------------|-------------|---------------|-------------|
|---------------|-------------|---------------|-------------|


  (G)
  Q  Q  E E E E   Q  Q  Q  Q    a Q  E E Q  Q    E E E E E E Q
|----0------0---|----0-----0--|---0--0------0--|-----0----------|
|----0--------0-|-1--0-----0--|-2s3----0-1-----|-0h1---0-1p0----|
|-------0h2-----|-------2-----|----------------|-------------2--|
|-0-------------|-------------|----------------|----------------|
|---------------|-------------|----------------|----------------|
|---------------|-------------|----------------|----------------|


  (Em7)
  Q  Q  E E E E   Q  Q  Q  Q    Q  Q  E E E E   Q  Q  Q  Q
|----0------0---|----0-----0--|----0------0---|----0-----0--|
|----0--------0-|-1--0--------|----0--------0-|-1--0--------|
|-------0h2-----|-------2--0--|-2-----0h2-----|-------2--0--|
|-2-------------|-------------|-2-------------|-------------|
|---------------|-------------|---------------|-------------|
|---------------|-------------|---------------|-------------|


                                                      D.S. al Coda
  (G)
  E E E E E E E E   E E E E E E E E   a Q  a Q  E E Q    Q  Q  Q  Q
|-------0---------|-0-------0-------|------------------|------------||
|-----3---3h5p3---|---0---0---0---0-|-2s3--2s3---------|-3--3--3--3-||
|-2s4-----------4-|-------------2---|-3s4--3s4--2-0----|-0--2--0--0-||
|-----------------|-----5-----------|---------------2--|------------||
|-----------------|-----------------|------------------|------------||
|-----------------|-----------------|------------------|------------||


   Chorus
    &
    (Em7)
    Q  Q  E E E E   Q  Q  Q  Q    Q  Q  E E E E   Q  Q  Q  Q
||-----0------0---|----0-----0--|----0------0---|----0-----0---|
||o----0--------0-|-1--0--------|----0--------0-|-1--0---------|
||--2-----0h2-----|-------2--0--|-2-----0h2-----|-------2--0---|
||--2-------------|-------------|-2-------------|--------------|
||o---------------|-------------|---------------|--------------|
||----------------|-------------|---------------|--------------|


  (G)
  Q  Q  E E E E   Q  Q  Q  Q     Q  E E Q  E E   E E Q  E E Q
|----0------0---|----0-----0--|-----0------0---|------------0--|
|----0--------0-|-1--0-----0--|-/3----0-1----0-|-1p0----1p0-0--|
|-------0h2-----|-------2-----|----------------|-----2---------|
|-0-------------|-------------|----------------|---------------|
|---------------|-------------|----------------|---------------|
|---------------|-------------|----------------|---------------|


  (Em7)
  Q  Q  E E E E   Q  Q  Q  Q    Q  Q  E E E E   Q  Q  Q  Q
|----0------0---|----0-----0--|----0------0---|----0-----0--|
|----0--------0-|-1--0--------|----0--------0-|-1--0--------|
|-2-----0h2-----|-------2--0--|-2-----0h2-----|-------2--0--|
|-2-------------|-------------|-2-------------|-------------|
|---------------|-------------|---------------|-------------|
|---------------|-------------|---------------|-------------|


                               1.
  (G)
  Q  Q  E E E E   Q  Q  Q  Q     Q  E E Q  E E   E E Q  E E Q
|----0------0---|----0-----0--|-----0------0---|------------0---||
|----0--------0-|-1--0-----0--|-/3----0-1----0-|-1p0----1p0-0--o||
|-------0h2-----|-------2-----|----------------|-----2----------||
|-0-------------|-------------|----------------|----------------||
|---------------|-------------|----------------|---------------o||
|---------------|-------------|----------------|----------------||


  2.=H
   Q  E E Q  E E   E E Q  E E Q     E E E E E E E E   E E E E +H
|-----0------0---|------------0--|-^0---------------|----------------*|
|-/3----0-1----0-|-1p0----1p0-0--|-^0-0h1p0-1p0-1p0-|-1p0-1p0-(0)----*|
|----------------|-----2---------|-^0---------------|----------------*|
|----------------|---------------|-^0---------------|----------------*|
|----------------|---------------|------------------|----------------*|
|----------------|---------------|------------------|----------------*|




--------------------------------------------------------------------------------


Duration Legend
---------------
W - whole; H - half; Q - quarter; E - 8th; S - 16th; T - 32nd; X - 64th; a - acciaccatura
+ - note tied to previous; . - note dotted; .. - note double dotted
Uncapitalized letters represent notes that are staccato (1/2 duration)
Irregular groupings are notated above the duration line
Duration letters will always appear directly above the note/fret number it represents the
duration for.  Duration letters with no fret number below them represent rests.  Multi-
bar rests are notated in the form Wxn, where n is the number of bars to rest for.  Low
melody durations appear below the staff

Tablature Legend
----------------
 h   - hammer-on
 p   - pull-off
 b   - bend
 pb  - pre-bend
 r   - bend release (if no number after the r, then release immediately)
 /\  - slide into or out of (from/to "nowhere")
 s   - legato slide
 S   - shift slide
 - natural harmonic
[n]  - artificial harmonic
n(n) - tapped harmonic
 ~   - vibrato
 tr  - trill
 T   - tap
 TP  - trem. picking
 PM  - palm muting
\n/  - tremolo bar dip; n = amount to dip
 \n  - tremolo bar down
 n/  - tremolo bar up
/n\  - tremolo bar inverted dip
 =   - hold bend; also acts as connecting device for hammers/pulls
 <> - volume swell (louder/softer)
 x   - on rhythm slash represents muted slash
 o   - on rhythm slash represents single note slash

Misc Legend
-----------
 |  - bar
||  - double bar
||o - repeat start
o|| - repeat end
*|  - double bar (ending)
 :  - bar (freetime)
 $  - Segno
 &  - Coda
Tempo markers -  = BPM(8/16=s8/s16), where s8 = swing 8ths, s16 = swing 16ths





Comments


Popular John Butler Trio tabs & chords
Better Than Tabs
Betterman Intro 1 Tabs
Don't Wanna See Your Face 1 Tabs
Gonna Be A Long Time Intro Tabs
I'd Do Anything Tabs
Life Ain't What It Seems Tabs
One Way Road 1 Tabs
One Way Road Live Tabs
Zebra 2 Tabs
Zebra Intro Tabs


Song lyrics



↑ Back to top | Tablatures and chords are parodies/interpretations of the original songs. You may use it for private study, scholarship, research or language learning purposes only
© 2014 AZChords.com Contact us | Privacy policy | DMCA | Add/correct tabs | Request tabs | Top 50 tabs