» » »

John Butler Trio, Better Than Tabs (ver.1)

Artists:  A B C D E F G H I J K L M N O P Q R S T U V W X Y Z # 

Better Than Tabs (ver.1)

John Butler Trio Tabs
 Rating:
4.7/5 (14 votes)
Better Than lessons Tabs too difficult? Try these video lessons and learn fast
1
                intro
e|-3-3-----3-----3|
B|-3-1-0^1-0-----0|
G|-0-0-------0^2--|
D|----------------|
A|----------------|
E|----------------|

e|--3-----3---3----|--3-----3---3---3|--3-----3---3----|-3---3--3-----3----|
B|--0-----0-1-0----|--0-----0-1-0---0|--0-----0-1-0----|-3---1--0^1-0-1^0--|
G|----0^2-------2-0|----0^2-------2--|----0^2-------2-0|---0---0----------2|
D|-----------------|-----------------|-----------------|-------------------|
A|-----------------|-----------------|-----------------|-------------------|
E|0----------------|0----------------|3----------------|-------------------|

lead in
e|--3-----3---3----|--3-----3---3---3|--3-----3---3---3|--3-----3---3------|
B|--0-----0-1-0----|--0-----0-1-0---0|--0-----0-1-0---0|--0-----0-1-0------|
G|----0^2-------2-0|----0^2-------2--|----0^2-------2--|----0^2-------2-0--|
D|-----------------|-----------------|-----------------|-------------------|
A|-----------------|-----------------|-----------------|-------------------|
E|0----------------|0----------------|3----------------|3------------------|

verse  (x 2)
e|--3-----3---3----|--3-----3---3---3|--3-----3---3----|--3-----3---3---3--|
B|--0-----0-1-0----|--0-----0-1-0---0|--0-----0-1-0----|--0-----0-1-0---0--|
G|----0^2-------2-0|----0^2-------2--|----0^2-------2-0|----0^2-------2----|
D|-----------------|-----------------|-----------------|-------------------|
A|-----------------|-----------------|-----------------|-------------------|
E|0----------------|0----------------|3----------------|3------------------|

  
chorus
e|--3-----3---3----|--3-----3---3---3|--3-----3---3----|-3---3--3-----3----|
B|--0-----0-1-0----|--0-----0-1-0---0|--0-----0-1-0----|-3---1--0^1-0-1^0--|
G|----0^2-------2-0|----0^2-------2--|----0^2-------2-0|---0---0----------2|
D|-----------------|-----------------|-----------------|-------------------|
A|-----------------|-----------------|-----------------|-------------------|
E|0----------------|0----------------|3----------------|(3)----------------|

  bridge x 2 (improv own picking or play as is)
e|-------10---|-------7---|-------5---|------3-----|-----------------------|
B|---8--------|---5-------|---3-------|--3-----0---|-----------------------|
G|-----7------|-----4-----|-----2-----|----0-----0-|-----------------------|
D|------------|-----------|-----------|------------|-----------------------|
A|------------|-----------|-----------|------------|-----------------------|
E|-8----------|-5---------|-3---------|-3----------|-----------------------|

e|--3-----3---3----|--3-----3---3---3|--3-----3---3----|-3---3--3-----3----|
B|--0-----0-1-0----|--0-----0-1-0---0|--0-----0-1-0----|-3---1--0^1-0-1^0--|
G|----0^2-------2-0|----0^2-------2--|----0^2-------2-0|---0---0----------2|
D|-----------------|-----------------|-----------------|-------------------|
A|-----------------|-----------------|-----------------|-------------------|
E|0----------------|0----------------|3----------------|(3)----------------|

e|--3-----3---3----|--3-----3---3---3|--3-----3---3----|
B|--0-----0-1-0----|--0-----0-1-0---0|--0-----0-1-0----|
G|----0^2-------2-0|----0^2-------2--|----0^2-------2-0|
D|-----------------|-----------------|-----------------|   
A|-----------------|-----------------|-----------------|
E|0----------------|0----------------|3----------------|

lead break
e|----------------------------------------------|
B|-----3-3^5-3-3^0---0---------/3---------------|
G|-2^4-------------0---2^0---0-/4-4-2^0---0-2-0-|
D|-------------------------2------------2-------|
A|----------------------------------------------| 
E|----------------------------------------------|

verse  (x 2)
e|--3-----3---3----|--3-----3---3---3|--3-----3---3----|--3-----3---3---3--|
B|--0-----0-1-0----|--0-----0-1-0---0|--0-----0-1-0----|--0-----0-1-0---0--|
G|----0^2-------2-0|----0^2-------2--|----0^2-------2-0|----0^2-------2----|
D|-----------------|-----------------|-----------------|-------------------|
A|-----------------|-----------------|-----------------|-------------------|
E|0----------------|0----------------|3----------------|3------------------|

chorus to end
e|--3-----3---3----|--3-----3---3---3|--3-----3---3----|-3---3--3-----3----|
B|--0-----0-1-0----|--0-----0-1-0---0|--0-----0-1-0----|-3---1--0^1-0-1^0--|
G|----0^2-------2-0|----0^2-------2--|----0^2-------2-0|---0---0----------2|
D|-----------------|-----------------|-----------------|-------------------|
A|-----------------|-----------------|-----------------|-------------------|
E|0----------------|0----------------|3----------------|(3)----------------|
            
Submit corrections

comments powered by Disqus
↑ Back to top | John Butler Trio Tabs for Better Than. Lyrics for acoustic guitar and electric guitar. 1 Tablatures and chords are parodies/interpretations of the original songs. You may use it for private study, scholarship, research or language learning purposes only