» » »

John Butler Trio, What You Want Tabs (ver.1)

Artists:  A B C D E F G H I J K L M N O P Q R S T U V W X Y Z # 

What You Want Tabs (ver.1)

John Butler Trio Tabs
 Rating:
4/5 (4 votes)
What You Want lessons Tabs too difficult? Try these video lessons and learn fast
1
                Hey everyone, just mucking around and playing to the song and this is what i came up with
not 100% but sounds very good when played with or without the song.
I can't be stuffed tabbing the strumming pattern so listen to the song, it's pretty damn 
to pick up.
Enjoy.

Key: x - mute
     / - slide
     ~ - bend
     h - hammer
     p - pull off

Tuning- CGCGCE (Open C)

Intro: begins with 9 piece orchestra then John comes in at 00.12. This is played during 
verse aswell.

|--x-x-x-0-7-x--x---0-7-x--x-x--|
|--x-x-x-0-7-x--x---0-7-x--7-6--|
|--x-x-x-7-0-12-7---7-0-12-x-x--| He only plays the second way every now
|--x-x-x-4-0-11-6---4-0-11-6-6--| and again....listen for the change.
|--x-x-x-0-0-9--4---0-0-9--4-4--|
|--x-x-x-0-0-9--4---0-0-9--4-4--|

First Interlude: Still strumming but concentrate on the string being used more than the others.

|--0-0-0-0-0-0-0--0-0-0-0-0-0-0--|
|--0-0-0-0-0-0-0--0-0-0-0-0-0-0--|
|--0-0-0-0-0-0-0--0-0-0-0-0-0-7--|
|--4-4-4/6h7p6/4--4-4-4/6h7p6-0--|
|--0-0-0-0-0-0-0--0-0-0-0-0-0-0--|
|--0-0-0-0-0-0-0--0-0-0-0-0-0-0--|

then it kicks back into the main riff. but at the end of each he plays a little lick,
first 2 are the same and then the 3rd is a bit tricky.

|------------|    |-12-10-----10-----|
|-6~p4-------|    |------12-11--11---|
|------7-5-4-| x2 |---------------12-|
|------------|    |------------------|
|------------|    |------------------|
|------------|    |------------------|

The song changes pace after the next verse into this little lick that John plays over 
over until the outro:

|--------------|
|--------------|
|----------9---|
|----7h9/11-11-| He is still strumming during this but once again
|-7h9----------| concentrating mainly on the string being used.
|--------------|

Then that lick leads straight into the outro.

|-0/0/0/0--------------|
|-0/0/0/0--11/12/11/14-|
|-0/0/0/0--x--x--x-/14-| Obviously thats not exact but u get the jist...
|-4/6/7/9--11/12/11/14-| listen to the song and u will figure it out.
|-x/x/x/x--------------|
|-4/6/7/9--------------|

|-0/0/0/0-----10/12/14/15-|
|-0/0/0/0-----------------|
|-0/0/0/0--7/9------------|
|-4/6/7/9-----------------|
|-x/x/x/x-----------------|
|-4/6/7/9-----------------|

|-0/0/0/0--------------------------|
|-0/0/0/0-----6bp4--------6bp4-----|
|-0/0/0/0----------5-4---------5-4-|
|-4/6/7/9--------------------------|
|-x/x/x/x--------------------------|
|-4/6/7/9--------------------------|

|-0/0/0/0--0--|
|-0/0/0/0--0--|
|-0/0/0/0--0--|
|-4/6/7/9--0--| Let the last note ring out.
|-x/x/x/x--0--|
|-4/6/7/9--0--|

Annnnd your done. As i said before im very lazy and you will have to listen to the song 
get it exactly with timing and the strumming pattern, but from this you should have no problems at all.
Peace and Love
Andy ;)
            
Submit corrections

comments powered by Disqus
↑ Back to top | John Butler Trio Tabs for What You Want. Lyrics for acoustic guitar and electric guitar. 1 Tablatures and chords are parodies/interpretations of the original songs. You may use it for private study, scholarship, research or language learning purposes only