» » »

John Butler Trio, Better Than Bass tabs (ver.1)

Artists:  A B C D E F G H I J K L M N O P Q R S T U V W X Y Z # 

Better Than Bass tabs (ver.1)

John Butler Trio Tabs
Rating:
5/5 (2 votes)
Better Than lessons Tabs too difficult? Try these video lessons and learn fast
                -------------------------------------------------------------------------------
-------------------------------------------------------------------------------


Tuning: Standard (EADG)


I heard this song not too long ago and fell in love with it. I couldn't find a tab of it
on the internet though. So here it is. All the parts are here in full. He throws in
fills and double hits a couple of times but other than that this is the complete basic 
of the song. It's a fun and easy song to play. Let me know what you think and have fun.


Little Intro Thing:
G|--------------------|
D|---12--10--9--------|
A|--------------0/7---|
E|--------------------|

Verse/Chorus:
G|--------------------------------------|
D|--------------------------5-----------|
A|---------7---7----------5---------7---|
E|----7-10-------10\3---3------7-10-----|

Bridge:
G|-------------------------|
D|----------------5--------|  x 3
A|--3--3p0-------5---------|
E|----------5p3-------2-3--|

G|-------------------------|---------------------|
D|-------------------------|----------5----------|
A|--3--3p0-----------------|--------5---------7--|
E|----------5p3---3-3-2-0--|--0-3-3------7-10----|

G|-----------------------------------------|
D|-------------------------/9-/9----5h7p5--|
A|-------7---7----------5------------------|
E|--7-10-------10\3---3--------------------|

Then back into the normal Verse/Chorus part and end on a low G.

| /  slide up
| \  slide down
| h  hammer-on
| p  pull-off
| ~  vibrato
| +  harmonic
| x  Mute note
===============================================================================
            
Submit corrections

comments powered by Disqus
↑ Back to top | John Butler Trio Bass for Better Than. Lyrics for acoustic guitar and electric guitar. Tablatures and chords are parodies/interpretations of the original songs. You may use it for private study, scholarship, research or language learning purposes only