>
 >
Losing You

Losing You Guitar Tabs

John Butler Trio - Losing You chords, tabs, tablatures, lyrics

Guitar lessons | Add/correct | Request | Top 50 tabs Artists:  A B C D E F G H I J K L M N O P Q R S T U V W X Y Z 0-9

Losing You Guitar Tabs – John Butler Trio

CD, Sheet music, Poster

Do you like Losing You? Share with your friends now
TabsTabs v2Tabs v3Tabs v4
Losing You - JBT
Tuning- open G with bottom C
Legend: / = slide up, \ = slide down, h = hammer, p = pull, + = harmonic

Intro

d-|--0---0-0-0-0-0--0-0-|--0---0-0-0--0-0---0-0-|
b-|-------------3-/5-3--|---3/5-3-0-------------|
g-|-------0-2-4---------|-----------/4-2-0h2-0--|
d-|---0h2---------------|-----------------------|
g-|-0-------------------|-----------------------| 
C-|---------------------|-0---------------------|

d-|--0---0-0-0--0------0-0-|--0---0-0-0--0-0---0-0-|
b-|----------------0-------|---3h5-3-0-------------|
g-|-------0-0-/4----4\2-0--|-----------/4-2-0h2-0--|
d-|---0h2------------------|-----------------------|
g-|-0----------------------|-----------------------|
C-|------------------------|-0---------------------|

d-|--0---0-0-0-0---0-0---0-|--0---0-0-0--0-0---0-0-|
b-|---3h5-3-0---3h5-3------|--------------------0--|
g-|-------------------4\2--|(0)----0-2-/4-2-0h2----|
d-|-0----------------------|---0h2-----------------|
g-|------------------------|-0---------------------|
C-|-----------0------------|-----------------------|

d-|--0---0-0-0-0-0---0-0-|
b-|----------------------|
g-|-------0-2-0---0h2-0--|
d-|---0h2-------2--------|
g-|-0--------------------|
C-|----------------------|

verses 1-3

d-|--0---0-0-0--0-0--0-0-|--0--0-0-0--0-0-0---0-|
b-|--------------3-/5-3--|---/5-3-0-------------|
g-|-------0-0-/4---------|----------/4-2-0------|
d-|---0h2----------------|-----------------2p0--|
g-|-0--------------------|----------------------|
C-|----------------------|-0--------------------|
 
d-|--0---0-0-0--0---0---0-0-|--0---0-0-0--0-0-0---0-|
b-|--------------3p0--------|---3h5-3-0-------------|
g-|-------0-0-/4-----4\2-0--|-----------/4-2-0------|
d-|---0h2-------------------|------------------2p0--|
g-|-0-----------------------|-----------------------|
C-|-------------------------|-0---------------------|

chorus

d-|--0---0-0-0-0---0-0---0-|
b-|---3h5-3-0---3h5-3------|
g-|-------------------4\2--|
d-|-0----------------------|
g-|------------------------|
C-|-----------0------------|

hook (couple variations on this throughout song)

d-|--0---0-0-0--0-0---0-0-|--0---0-0-0-0-0-0-0-|
b-|--------------------0--|--------------------|
g-|(0)----0-2-/4-2-0h2----|-------0-2-0---0----|
d-|---0h2-----------------|---0h2-------2---2--|
g-|-0---------------------|-0------------------|
C-|-----------------------|--------------------|

 insert verse 2

   chorus                   break

d-|--0---0-0-0-0---0-0---0-|--0---0-0-0--0-0---0-0-|
b-|---3h5-3-0---3h5-3------|-----------------------|
g-|-------------------4\2--|-------0-2-/4-2-0h2-0--|
d-|-0----------------------|---0h2-----------------|
g-|------------------------|-0---------------------|
C-|-----------0------------|-----------------------|

repeat chorus

d-|--0---0-0-0-0---0-0---0-|
b-|---3h5-3-0---3h5-3------|
g-|-------------------4\2--|
d-|-0----------------------|
g-|------------------------|
C-|-----------0------------|

hook 

d-|--0---0-0-0--0-0---0-0-|--0---0-0-0-0-0-0-0-|
b-|--------------------0--|--------------------|
g-|(0)----0-2-/4-2-0h2----|-------0-2-0--------|
d-|---0h2-----------------|---0h2-------2-0-2--|
g-|-0---------------------|-0------------------|
C-|-----------------------|--------------------|

 
 insert verse 3


   chorus                   break

d-|--0---0-0-0-0---0-0---0-|--0---0-0-0--0-0---0-0-|
b-|---3h5-3-0---3h5-3------|-----------------------|
g-|-------------------4\2--|-------0-2-/4-2-0h2-0--|
d-|-0----------------------|---0h2-----------------|
g-|------------------------|-0---------------------|
C-|-----------0------------|-----------------------|

repeat chorus

d-|--0---0-0-0-0---0-0---0-|
b-|---3h5-3-0---3h5-3------|
g-|-------------------4\2--|
d-|-0----------------------|
g-|------------------------|
C-|-----------0------------|

interlude

d-|--0---0-0-0-0-0--0-0-|--0--0-0-0--0-0---0-0-|
b-|-------------3-/5-3--|---/5-3-0-------------|
g-|-------0-2-4---------|----------/4-2-0h2-0--|
d-|---0h2---------------|----------------------|
g-|-0-------------------|----------------------| 
C-|---------------------|-0--------------------|

d-|--0---0-0-0--0------0-0-|--0---0-0-0--0-0---0-0-|
b-|----------------0-------|---3h5-3-0-------------|
g-|-------0-0-/4----4\2-0--|-----------/4-2-0h2-0--|
d-|---0h2------------------|-----------------------|
g-|-0----------------------|-----------------------|
C-|------------------------|-0---------------------|

d-|--0---0-0-0-0---0-0---0-|--0---0-0-0--0-0---0-0-|
b-|---3h5-3-0---3h5-3------|--------------3-----0--|
g-|-------------------4\2--|(0)----0-2-/4---4\2----|
d-|-0----------------------|---0h2-----------------|
g-|------------------------|-0---------------------|
C-|-----------0------------|-----------------------|

d-|--0---0-0-0-0-0-0-0-|
b-|--------------------|
g-|-------0-2-0--------|
d-|---0h2-------2-0-2--|
g-|-0------------------|
C-|--------------------|

verse 4

d-|--0---0-0-0--0-0--0-0-|--0--0-0-0--0-0-0-0-|
b-|--------------3-/5-3--|---/5-3-0-----------|
g-|-------0-0-/4---------|----------/4-2-0-0--|
d-|---0h2----------------|--------------------|
g-|-0--------------------|--------------------|
C-|----------------------|-0------------------|
 
d-|--0---0-0-0--0------0-0-|--0---0-0-0--0-0-0---0-|
b-|----------------0-------|---3h5-3-0-------------|
g-|-------0-0-/4----4\2-0--|-----------/4-2-0------|
d-|---0h2------------------|------------------2p0--|
g-|-0----------------------|-----------------------|
C-|------------------------|-0---------------------|

   chorus                   break

d-|--0---0-0-0-0---0-0---0-|--0---0-0-0--0-0---0-0-|
b-|---3h5-3-0---3h5-3------|-----------------------|
g-|-------------------4\2--|-------0-2-/4-2-0h2-0--|
d-|-0----------------------|---0h2-----------------|
g-|------------------------|-0---------------------|
C-|-----------0------------|-----------------------|

repeat chorus

d-|--0---0-0-0-0---0-0---0-|
b-|---3h5-3-0---3h5-3------|
g-|-------------------4\2--|
d-|-0----------------------|
g-|------------------------|
C-|-----------0------------|

hook 

d-|--0---0-0-0--0-0---0-0-|--0---0-0-0-0-0---0-0-|
b-|--------------------0--|----------------------|
g-|(0)----0-2-/4-2-0h2----|-------0-2-0---0h2-0--|
d-|---0h2-----------------|---0h2-------2--------|
g-|-0---------------------|-0--------------------|
C-|-----------------------|----------------------|

repeat 1st verse (note constant g bass note)

d-|--0---0-0-0--0-0--0-0-|--0--0-0-0--0-0-0---0-|
b-|--------------3-/5-3--|---/5-3-0-------------|
g-|-------0-0-/4---------|----------/4-2-0------|
d-|---0h2----------------|-----------------2p0--|
g-|-0--------------------|-0--------------------|
C-|----------------------|----------------------|
 
d-|--0---0-0-0--0---0---0-0-|--0---0-0-0--0-0-0---0-|
b-|--------------3p0--------|---3h5-3-0-------------|
g-|-------0-0-/4-----4\2-0--|-----------/4-2-0------|
d-|---0h2-------------------|------------------2p0--|
g-|-0-----------------------|-0---------------------|
C-|-------------------------|-----------------------|

   chorus                   break

d-|--0---0-0-0-0---0-0---0-|--0---0-0-0--0-0---0-0-|
b-|---3h5-3-0---3h5-3------|-----------------------|
g-|-------------------4\2--|-------0-2-/4-2-0h2-0--|
d-|-0----------------------|---0h2-----------------|
g-|------------------------|-0---------------------|
C-|-----------0------------|-----------------------|

   repeat chorus         

d-|--0--0-0-0-0--0-0---0-|--0---0-0-0--0-0---0-0-|
b-|------3-----/5-3------|-----------------------|
g-|---/4---4--------4\2--|-------0-2-/4-2-0h2-0--|
d-|-0--------------------|---0h2-----------------|
g-|----------------------|-0---------------------|
C-|----------0-----------|-----------------------|

last chorus                 last few bars
d-|--0---0-0-0-0--0-0---0-|--0---0-0-0--0-0---0-0-|
b-|---3h5-3-0------3------|--------------------0--|
g-|-------------/4---4\2--|-------0-2-/4-2-0h2----|
d-|-0---------------------|---0h2-----------------|
g-|-----------------------|-0---------------------|
C-|-----------0-----------|-----------------------|

d-|--0---0-0-0-0-0--0-0-|--0---0-0-0--0-0---0-0-|
b-|-------------3-/5-3--|-----------------------|
g-|-------0-2-4---------|-------0-2-/4-2-0h2-0--|
d-|---0h2---------------|---0h2-----------------|
g-|-0-------------------|-0---------------------| 
C-|---------------------|-----------------------|

d-|--0---0-0-0---0-0---0--|-+12-|
b-|-----------0h1-0-------|-+12-|
g-|-------0-2-------0h2-0-|-+12-|
d-|---0h2-----------------|-+12-|
g-|-0---------------------|-+12-| 
C-|-----------------------|-----|





Comments


Popular John Butler Trio tabs & chords
Funky Tonight 1 Bass Tabs
Home Is Where The Heart Is Bass Tabs
All Night Long Tabs
Better Than Tabs
Funky Tonight Tabs
Gonna Be A Long Time Tabs
I'd Do Anything Tabs
Ocean Live 1 Tabs
Trees Tabs
Zebra Tabs


Song lyrics



↑ Back to top | Tablatures and chords are parodies/interpretations of the original songs. You may use it for private study, scholarship, research or language learning purposes only
© 2014 AZChords.com Contact us | Privacy policy | DMCA | Add/correct tabs | Request tabs | Top 50 tabs