» » »

Better Than Tabs (ver.2)

Artists:  A B C D E F G H I J K L M N O P Q R S T U V W X Y Z # 

Better Than Tabs (ver.2)

John Butler Trio
Rating:
0/5 (0 votes)

Hard to play? Try these video lessons and learn fast.
                (Intro)
John Butler Better Than


this is my method to play the banjo with the guitar

tune guitar DADF#AD (open D)

and put the capo on 5


Intro
  
||----------------------------|----------------------------|
||----------------------------|----------------------------|
||-----3------0---1--0--------|-----3------0---1--0--------|
||--------0-2---0-------2--0--|--------0-2---0-------2--0--|
||--0-------------------------|--0-------------------------|
||----------------------------|----------------------------|


  
----------------------------|-----------------------------|
----------------------------|-----------------------------|
-----3------0---1--0-----0--|--1g3----1----0-1--1-0----0--|
--------0-2---0-------2-----|-----------------------2--0--|
----------------------------|-----------------------------|
--0-------------------------|-----------------------------|

----------------------------|----------------------------|
----------------------------|----------------------------|
-----3------0---1--0--------|-----3------0---1--0--------|
--------0-2---0-------2--0--|--------0-2---0-------2--0--|
--0-------------------------|--0-------------------------|
----------------------------|----------------------------|


 
----------------------------|----------------------------||
----------------------------|----------------------------||
-----3------0---1--0--------|-----3------0---1--0--------||
--------0-2---0-------2--0--|--------0-2---0-------2--0--||
----------------------------|----------------------------||
--0-------------------------|--0-------------------------||



and play the song like this


----------------------------|----------------------------|
----------------------------|----------------------------|
-----3------0---1--0--------|-----3------0---1--0--------|
--------0-2---0-------2--0--|--------0-2---0-------2--0--|
--0-------------------------|--0-------------------------|
----------------------------|----------------------------|


 
----------------------------|----------------------------||
----------------------------|----------------------------||
-----3------0---1--0--------|-----3------0---1--0--------||
--------0-2---0-------2--0--|--------0-2---0-------2--0--||
----------------------------|----------------------------||
--0-------------------------|--0-------------------------||
            
Hard to play? Try these video lessons and learn fast. | Correct




comments powered by Disqus
↑ Back to top | Tablatures and chords are parodies/interpretations of the original songs. You may use it for private study, scholarship, research or language learning purposes only