>
 >
Where Do We Go From Here

Where Do We Go From Here Bass Tabs

Jamiroquai - Where Do We Go From Here chords, tabs, tablatures, lyrics

Guitar lessons | Add/correct | Request | Top 50 tabs Artists:  A B C D E F G H I J K L M N O P Q R S T U V W X Y Z 0-9

Where Do We Go From Here Bass Tabs – Jamiroquai

CD, Sheet music, Poster

Do you like Where Do We Go From Here? Share with your friends now
Bass Tabs
Intro
|-----------------|-------7---------|
|---2---4---5---4-|---2-------------|  The last note can be played
|-----------------|-----5---4-------|  an octave higher (D|-7-|)
|-0---2---3---2---|-0---------5-----|

 Verse 
|-----------------|-----------------|  The verse consists of two bars,
|-----------------|2-------2--------|  played X times. Because the 1st
|--------*--------|--2-5-----5-2----|  bar is always the same, it's
|-3-0-2--05-3-5---|---------------54|  marked as -V- from here on!

|---|-----------------|---|-----------------|---|-----------------|
|---|2-------2--------|---|2-------2--------|---|2-------2-55-2---|
|-V-|--2-5-----5--2---|-V-|--2-5-----55-2---|-V-|--2-5----------5-|
|---|-----------------|---|---------------5-|---|-----------------|
                     
|---|-----------------|---|-----------------|---|-----------------|
|---|2-------2--------|---|2-------2--------|---|2-------2--------|
|-V-|--5---2---5--2---|-V-|--5---2---5--2---|-V-|--5---2---5--2---|
|---|-----------------|---|---------------5-|---|-----------------|

 Chorus
|---------------------------|---------------------------|---|
|---------------------------|4--5-4--------5h7--5-------|---|
|------5------------5-5-7-7-|---------------------7-5---|-C-|
|-5---------5-6-7-7---------|-------------------------7-|---|

--------------------------|---|  The first bar is  
4--5-4--------------------|---|  always the same so
--------------5h7--5------|-C-|  it's marked as -C-
---------------------7-3-4|---|  from here on      

 Verse2 (play 12x, except:  6th time this            12th time this)
|---|-----------------|    |---|-----------------|  |---|-----------------|
|---|2-------2--------|    |---|2-------2--------|  |---|2-------2----4p2-|
|-V-|--5---2---5--2---|    |-V-|--5---2---5---5--|  |-V-|--5---2---5------|
|---|-----------------|    |---|-----------------|  |---|-----------------|

 Break
|-----------------|-----------------|-----------------|-----------------|
|-2-2-0-----------|-2-2-0-----------|-2-2-0-----------|-2-2-0-----------|
|-----------------|-----------4p0--2|----------------2|-----------4----2|
|-----------------|-----------------|-----------------|-----------------|

|-----------------|-----------11~12-|-----------7-----|-----------------|
|-2-2-0-----------|-2-2-0-----------|-2-2-0-----------|-2-2-0--------4--|
|----------------2|-----------------|----------------2|-----------4-----|
|-----------------|-----------------|-----------------|-----------------|

 Chorus2
|---|---------------------------|---|----------4p0--------------|---|---------------------------|
|---|4--5-4--------5h7--5-------|---|4--5-4---------4-----------|---|4--5-4---------------------|
|-C-|---------------------7-5---|-C-|------------------7--5-----|-C-|---------------------------|
|---|-------------------------7-|---|-----------------------7-3-|---|---------------0---2---3---|

|---|---------------------------|---|---------------------------|---|---------------------------|
|---|4--5-4---------------------|---|4--5-4--------5h7--5-------|---|4--5-4---------------------|
|-C-|------------5-5h7--5-------|-C-|---------------------7-5---|-C-|---------------7---5-------|
|---|---------------------7-3-4-|---|-------------------------7-|---|---------------------7-3-4-|

|---|---------------------------|---|----------7h9--------------|---|---------------------------|---|
|---|4--5-4-------------5-------|---|4--5-4-------7h9-----5-5h7-|---|4--5-4---------------------|---|
|-C-|--------------5h7----7-5---|-C-|----------------5h77-------|-C-|------------5-5h7--5-------|-C-|
|---|-------------------------7-|---|---------------------------|---|---------------------7-0-3-|---|

 (Break2)
|---------------------------|----12---------------------|
|---10----12----12--12-12h13|----------13---(12-12)-----|  Last two or three  
|---------------------------|-10-------------10~--------|  notes vary a bit.
|-8----10----10-------------|-------11----10------------|

 Chorus3
|---|---------------------------|---|---------------------------|---|---------------------------|
|---|4--5-4--------5h7--5-------|---|4--5-4---------5--4--------|---|4--5-4--------5h7--5-------|
|-C-|---------------------7-5---|-C-|---------------------5-7---|-C-|---------------------7-5---|
|---|-------------------------7-|---|-------------------------7-|---|-------------------------7-|

|---|--------------7h9--7-------|---|----------7h9--------------|---|
|---|4--5-4---------------7-5---|---|4--5-4-------7h9-----5-----|---|
|-C-|-------------------------7-|-C-|----------------5h77---5---|-C-|
|---|---------------------------|---|-------------------------7-|---|

 Intro (play 4x)

 Verse 
|---|-----------------|---|-----------------|---|-----------------|---|-----------------|  
|---|2-------2--------|---|2-------2--------|---|2-------2--------|---|2-------2--------|  
|-V-|--2-5--0--5--2---|-V-|--2-5-----5--2---|-V-|--2-5------0--2--|-V-|--2-5-----5--2---|  
|---|---------------5-|---|-----------------|---|-----------------|---|-----------------|   
                                            
|---|-----------------|---|-----------------|---|-----------------|   
|---|2-------2--------|---|2-------2--4-5-4-|---|2-------2--------|   
|-V-|--2-5-----5--2-52|-V-|--2-5------------|-V-|--2-5-----5--2---|   
|---|-----------------|---|-----------------|---|-----------------|





Comments


Popular Jamiroquai tabs & chords
All Good In The Hood Bass Tabs
Didgin' Out 1 Bass Tabs
Just Another Story Bass Tabs
Revolution 1993 1 Bass Tabs
Space Cowboy 1 Bass Tabs
The Kids Bass Tabs
Virtual Insanity 2 Bass Tabs
Stillness In Time Chords
Feel So Good Ukulele
World That He Wants Ukulele


Song lyrics



↑ Back to top | Tablatures and chords are parodies/interpretations of the original songs. You may use it for private study, scholarship, research or language learning purposes only
© 2014 AZChords.com Contact us | Privacy policy | DMCA | Add/correct tabs | Request tabs | Top 50 tabs