» » »

Jamiroquai, When You Gonna Learn Bass tabs (ver.1)

Artists:  A B C D E F G H I J K L M N O P Q R S T U V W X Y Z # 

When You Gonna Learn Bass tabs (ver.1)

Jamiroquai Tabs
 Rating:
4/5 (4 votes)
When You Gonna Learn lessons Tabs too difficult? Try these video lessons and learn fast
                Verse1                       |**|              |***|
|-------5--5------|-----------------|-----------------|------------3---4-|
|----5------------|-----------------|-------2---2-----|-------3----------|
|-3---------5-6-7-|-8---------------|----2------------|----3-----1---2---|
|-----------------|----8--1---1--1--|-0-----------0---|-1----------------|

|-------5--5------|-----------------|-----------------|------------3---4-|
|----5------------|-----------3-----|-------2---2-----|-------3----------|
|-3---------5-6-7-|-8------------3--|----2------------|----3-----1---2---|
|-----------------|----8--1---------|-0----------0-0--|-1----------------|

|-------5--5------|-----------------|-----------------|------------3---4-|
|----5------------|--------------3--|-------2---------|-------3----------|
|-3---------5-6-7-|-8---------3-----|----2------------|----3-----1---2---|
|-----------------|----8--1---------|-0---------0--0--|-1----------------|

|-------5--5------|-----------------|-----------------|------------3---4-|
|----5------------|-----------------|-------2---------|-------3----------|
|-3---------5-6-7-|-8---------------|----2------2-----|----3-----1---2---|
|-----------------|----8--1---1--1--|-0------------0--|-1----------------|

 Chorus                       |***|
|---3---3---3---3-|----7------6---6-|--5---5--------5-|----6-------------|
|-----------------|-----------------|----------5------|--------------3---|
|-1---1---1---1---|/5-----4------4--|-3---3-------3---|/4---------3------|
|-----------------|-----------------|---------3-------|-------1----------|

|---3---3---3---3-|----7---------6--|--5---5--------5-|----6-------------|
|-----------------|-----------6-----|----------5------|--------------3---|
|-1---1---1---1---|/5-----4---------|-3---3-------3---|/4---------3------|
|-----------------|-----------------|---------3-------|-------1----------|

 Verse2
|-------5--5------|-----------------|-----------------|------------3---4-|
|----5------------|-----------------|-------2---2-----|-------3----------|
|-3---------5-6-7-|-8---------------|----2------------|----3-----1---2---|
|-----------------|----8--1---1--1--|-0-----------0---|-1----------------|

|-------5--5------|-----------------|-----------------|------------3---4-|
|----5------------|-----------3-----|-------2---2-----|-------3----------|
|-3---------5-6-7-|-8------------3--|----2------------|----3-----1---2---|
|-----------------|----8--1---------|-0----------0-0--|-1----------------|

|-------5--5------|-----------------|-----------------|------------3---4-|
|----5------------|-----------------|-------2---------|-------3----------|
|-3---------5-6-7-|-8---------3-----|----2------------|----3-----1---2---|
|-----------------|----8--1------1--|-0---------0--0--|-1----------------|

|-------5--5------|-----------------|-----------------|------------3---4-|
|----5------------|-----------------|-------2---------|-------3----------|
|-3---------5-6-7-|-8---------------|----2------2-----|----3-----1---2---|
|-----------------|----8--1---1--1--|-0------------0--|-1----------------|

 Chorus

 Verse3
|-------5--5------|-----------------|-----------------|------------3---4-|
|----5------------|-----------------|-------2---2-----|-------3----------|
|-3---------5-6-7-|-8---------------|----2------------|----3-----1---2---|
|-----------------|----8--1---1--1--|-0-----------0---|-1----------------|

|-------5--5------|-----------------|-----------------|------------3---4-|
|----5------------|-----------3-----|-------2---2-----|-------3----------|
|-3---------5-6-7-|-8------------3--|----2------------|----3-----1---2---|
|-----------------|----8--1---------|-0----------0-0--|-1----------------|

 Chorus 

 Last Chorus
 |***************|           |****|                              |***|        
|---3-----3-------|----7---------6--|--5---5--------5-|----6-------------|
|-----------3-3---|-----------6-----|----------5------|--------------3---|
|-1---1---------1-|/5-----4---------|-3---3-------3---|/4---------3------|
|-----------------|-----------------|---------3-------|-------1----------|

|---3---3---3---3-|----7---------6--|--5---5--------5-|----6-------------|
|-----------------|-----------6-----|----------5------|-----------3--3---|
|-1---1---1---1---|/5-----4---------|-3---3-------3---|/4----------------|
|-----------------|-----------------|---------3-------|-------1----------|

|---3---3---3---3-|----7------6-----|--5---5--------5-|----6-------------|
|-----------------|--------------6--|----------5------|--------------3---|
|-1---1---1---1---|/5-----4---------|-3---3-------3---|/4---------3------|
|-----------------|-----------------|---------3-------|-------1----------|

|----3-3-----3-3--|----7-----6--6---|--5---5--------5-|----6-------------|
|-----------------|-----------------|----------5------|----------3-3-----|
|-1-------1-------|/5-----4----4----|-3---3-------3---|/4------------3---|
|-----------------|-----------------|---------3-------|-------1----------|
            
Submit corrections

comments powered by Disqus
↑ Back to top | Jamiroquai Bass for When You Gonna Learn. Lyrics for acoustic guitar and electric guitar. Tablatures and chords are parodies/interpretations of the original songs. You may use it for private study, scholarship, research or language learning purposes only