» » »

Too Young To Die Bass tabs (ver.1)

Artists:  A B C D E F G H I J K L M N O P Q R S T U V W X Y Z # 

Too Young To Die Bass tabs (ver.1)

Jamiroquai
Rating:
0/5 (0 votes)

Hard to play? Try these video lessons and learn fast.
                (1)
Jamiroquai
Too Young To Die
****************


Riff A (verse)

(first time only)............................
----|----------------------------------------|
----|----------------------------------------|
1-3-|---1-------3----3----1--------3---------|
----|------1h3---------------1h3---------3-2-|

|--------------------------------------------|
|--------------------------------------------|
|-3-----1-------3----3----1--------3---------|
|----------1h3---------------1h3---------3-2-|

|--------------------------------------------|
|----------------1-----------------1---------|
|-----------1h3-----x---------1h3--------3-2-|
|-1----3-------------1----3------------------|

|-----3---3----------------------------------|
|---3-------3--------------6---5-------------|
|-1-----------1--x0------6-------5-----1-----|
|----------------------4-----------3---------|

Riff A2 (solo & last verse)

|--------------------------------------------|
|--------------------------------------------|
|-3-----1-------3----3----1--------3---------|
|----------1h3---------------1h3---------1-2-|

|--------------------------------------------|
|----------------1-----------------1---------|
|------1----1h3-----x---------1h3--------3-2-|
|-3------------------1----3------------------|

|---------3----------------2--------3-----4--|
|-----3-----3---------2----------------------|
|-1-----------1--x0--------------1-----2-----|
|--------------------------------------------|

Riff B (chorus)

|------5-x------6-------------------------------6--|
|----5----x---6-----4---6------4--6--/8--6---------|
|-3--------4------6--(6)----6-----------------4----|
|--------------------------------------------------|

Riff B2 (chorus)

|------5-x------6----------------------------------|
|----5----x---6----6-6-6-6------6-----8------------|
|-3--------4---------------6------6------8-----8---|
|----------------------------4--------------6------|

Riff C (interlude)

|-----5----6--------------------------------------|
|--------------6------6---------------------------|
|-3--------------4------------------------8-------|
|-----------------------4--4--4----6--------6-----|
            
Hard to play? Try these video lessons and learn fast. | Correct




comments powered by Disqus
↑ Back to top | Tablatures and chords are parodies/interpretations of the original songs. You may use it for private study, scholarship, research or language learning purposes only