» » »

Jamiroquai, Mr Moon Bass tabs (ver.2)

Artists:  A B C D E F G H I J K L M N O P Q R S T U V W X Y Z # 

Mr Moon Bass tabs (ver.2)

Jamiroquai Tabs
Rating:
0/5 (0 votes)
Mr Moon lessons Tabs too difficult? Try these video lessons and learn fast
                Jamiroquai
Mr Moon
*******

This song is one  of the most difficult songs Jamiroquai have ever
done, so don't blame me if it's wrong. I've done my best.

This is how I use to play the verse, but stuart have put in
some variations, which I couldn't tab...

riff A1
(verse)

this is how I use to play the verse, but stuart sometimes put in
some variations, which I couldn't tab...
and.... dont forget the poppin' and slappin'!!!

G|----5---------7--7--7--7--------------------------
D|----------------------------3-1-3-1-3-3-3-1-3-1-3-
A|--3---3-3-4-5--5--5--5----------------------------
E|-------------------------1------------------------

riff A2
(verse)
G|----5--5--5------------7-7--------------------------
D|----------------------------------3--3--3----3--3--3
A|--3--3--3--3--5--5--5-------5-----------------------
E|-------------------------------1---1--1--1-1--1--1--

Repeat!


riff B
(chorus)

G|-----------------------------------------------------
D|-----------------------------------------------------
A|--------------------------5---3----------------------
E|--3--3--5----0---0---5-------------------------------

Repeat!


*!* if you want to make your "own" Mr Moon tab, here is the notes:
verse: C  D  F

chorus: G  A  E  A  D  C

Well, I think thats it....

*If you  want to thank me for this wonderful tab, or maybe you hate me? then
mail me!*
            

comments powered by Disqus
↑ Back to top | Jamiroquai Bass for Mr Moon. Lyrics for acoustic guitar and electric guitar. Tablatures and chords are parodies/interpretations of the original songs. You may use it for private study, scholarship, research or language learning purposes only