» » »

Feels Just Like It Should Bass tabs (ver.1)

Artists:  A B C D E F G H I J K L M N O P Q R S T U V W X Y Z # 

Feels Just Like It Should Bass tabs (ver.1)

Jamiroquai
Rating:
1/5 (3 votes)

Hard to play? Try these video lessons and learn fast.
                Probs not the best of jamiroquai's funky tunes but 
i was amazed how many tabs were wrong for this simple bass line 
especially since stuart zender and paul turner dont usually
 give us mere mortals such an easy time with playing their lines)

  Main Bass Figure 
(This repeats for the vast majority of the song)

||-------------------------------------------||
||-------77--5-5-----------------------------||
||----------------5-0h3-----------------35---||
||--5-5------------------5----------035------||

Break Down Section
Its hard to hear exactly the notes that Paul turner is 
playing do to his heavy use of effects in this section but 
I've narrowed it down and to be honest this section gives you 
enough freedom to be as freaky as you like since its pretty much 
all down to you low end monsters. 
||--------------------------------------------||
||--------------------------------------------||
||-/3-3-3-3-3--/6----/5-----------------------||
||-----------------4-----4--------------------||

(Chromatic run down before re-entering the final chorus(es))
|------------------|----------------|-----------------|------------|
|------------------|----------------|-----------------|------------|
|------------------|----------------|-----------------|------------|
|--5-5-5-5-5-5-5-5-|-4-4-4-4-4-4-4-4|-3-3-3-3-3-3-3-3-|-2----------|

That's pretty much it for this tune, give the song a 
good listen before you play to get the rhythms locked in 
and have fun with it.
            
Hard to play? Try these video lessons and learn fast. | Correct




comments powered by Disqus
↑ Back to top | Tablatures and chords are parodies/interpretations of the original songs. You may use it for private study, scholarship, research or language learning purposes only