>
 >
Alright 1

Alright 1 Bass Tabs

Jamiroquai - Alright 1 chords, tabs, tablatures, lyrics

Guitar lessons | Add/correct | Request | Top 50 tabs Artists:  A B C D E F G H I J K L M N O P Q R S T U V W X Y Z 0-9

Alright 1 Bass Tabs – Jamiroquai

CD, Sheet music, Poster

Do you like Alright 1? Share with your friends now
Bass TabsBass Tabs v2ChordsUkulele
Bass Player: Stuart Zender
This Transcription: Lawrence Docherty

Dedications: This ones for Tomsk, and for everyone else from around the
world who mailed me to ask (you know who you are) :o)

This is a deceptively easy number. Keep those disco octaves rock-steady, and
in the sliding section try and add a bit of swing
into the bassline, get yourself grooving ;o) Any comments as usual to my new

Brief key:   3/5 means slide from fret 3 to 5, X means muted note on
corresponding string,
             3h5 means hammer-on from fret 3 to fret 5


Intro. (Note - all notes softly plucked (I use my thumb for this section)
and each note not marked X must last!!!)
       (There are some stray muted notes in here as well, listen to the
record for timing!)

        X                 X                  X                 X
|--------|--------|--------|--------|--------|--------|--------|--------|
|-------1|--------|-------3|--------|-------1|--------|-------3|--------|
|3-------|--------|3/5-----|--------|3-------|--------|3/5-----|------2-|
|--------|-3------|--------|5-------|--------|-3------|--------|5-------|
...

then into...

Main Riff. (Note - the octaves are all played Stacatto, ie abruptly or
sharply. Use thumb and middle fingers, its the easiest)
           (way to play these disco-type things. Some of the notes are slid
onto: I'll mark those with a *. Listen to the)
           (record, you'll know what I mean. This riff crops up a lot
throughout the song. I'll only write it down once though.)

          *        *        *
|-5-5-5-5|--------|-7-7-7-7|-------4|
|--------|-5-5-5-5|--------|-7-7-7--|
|3-3-3-3-|--------|5-5-5-5-|------2-|
|--------|3-3-3-3-|--------|5-5-5---| repeat lots of times :)


Variations on main riff. (Note - played later on in the song. Various ones,
the three main ones are here. Fiddle with these)
         (to get the rest!)


(first one)
          *              *            *
|-5-5-5-5|--------------|-7-7-5h7-5h7|-----------4|
|--------|-5-5-3h5---3h5|------------|-7-5h7-5h7--|
|3-3-3-3-|--------------|5-5-5---5---|----------2-|
|--------|3-3-3---3-----|------------|5-5---5-----|


(second one)
|---5---8--------|----------|---7---10--------|------------|
|-----------5---8|-5-5-5-3h5|-----------8---10|-7-7-5h7-5h7|
|1/3-3/6---------|----------|3/5-5/8----------|------------|
|--------1/3-3/6-|3-3-3-3---|--------3/5-5/8--|5-5-5---5---|


(third one)
|---5---8----12---8|----12-----15-----19-----15|---7---10--------|----------
--|
|------------------|---------------------------|-----------8---10|-7-7-5h7-5
h7|
|1/3-3/6-6/10--3/6-|6/10--10/13--13/17--10/13--|3/5-5/8----------|----------
--|
|------------------|---------------------------|--------3/5-5/8--|5-5-5---5-
--|


The End. Same as the start but play the notes Stacatto a couple of times
instead of once softly. No tab required ;)

--


--
Larry Docherty
Internet Technical Support

"...the lightning out of the dark cloud of man..."
--

(Note: Any opinions expressed herein are not necessarily those of my
employers.)





Comments


Popular Jamiroquai tabs & chords
Butterfly Bass Tabs
Feel So Good 1 Bass Tabs
Feels Just Like It Should 3 Bass Tabs
Mr Boogie Bass Tabs
Mr Moon Bass Tabs
Whatever It Is, I Just Can't Stop 1 Bass Tabs
Too Young To Die Tabs
Black Crow Ukulele
Love Foolosophy Ukulele
Virtual Insanity Ukulele


Song lyrics



↑ Back to top | Tablatures and chords are parodies/interpretations of the original songs. You may use it for private study, scholarship, research or language learning purposes only
© 2014 AZChords.com Contact us | Privacy policy | DMCA | Add/correct tabs | Request tabs | Top 50 tabs