» » »

Warning Tabs (ver.1)

Artists:  A B C D E F G H I J K L M N O P Q R S T U V W X Y Z # 

Warning Tabs (ver.1)

Incubus
Rating:
0/5 (0 votes)

Hard to play? Try these video lessons and learn fast.
                Standard tunning
EADGBE

Hi it's me again,i tab this song as far as i could, i don't know if the chords is correct
but it's sound good.

intro/verse

e|------------------------------------|
b|------------------------------------|
g|------------------------------------|
D|----------4-------------------------|
A|-5-----4--2---5----4---3------------|
E|-3-----2------3----2---1------------|
distrotion effects

Pre Chorus/
"over and over"
e|------------------------------------|
b|------------------------------------|
g|------------------------------------|
D|------------------------------------|
A|------------------------------------|
E|-0h2-2-2-2-2-2-2-0h2-2-2-2-2-2-2----|

Chorus/Strum chords

e|------------------------------------|
b|------------------------------------|
g|-4----/-6---/-7---------------------|
D|-4----/-6---/-7---------------------|
A|-2----/-4---/-5---------------------|
E|------------------------------------|


"Past her by"
e|-------------------------------------|
b|-------------------------------------|
g|-3-----------------------------------|
D|-3-----------------------------------|
A|-1-----------------------------------|
E|-------------------------------------|

e|------------------------------------|
b|------------------------------------|
g|-4----/-6---/-7---------------------|
D|-4----/-6---/-7---------------------|
A|-2----/-4---/-5---------------------|
E|------------------------------------|

Then back to the verse again then repeat

"Floating in this"
e|------------------------------------|
b|------------------------------------|
g|------------------------------------|
D|------------------------------------|
A|------------------------------------|
E|-0h2-2-2-2-2-2-2-0h2-2-2-2-2-2-2----|

Solo/Clean

e|------------------------------------|
b|------------------------------------|
g|-4----/-6---/-7---------------------|
D|-4----/-6---/-7---------------------|
A|-2----/-4---/-5---------------------|
E|------------------------------------|

Then you will hear the 2nd guitar in solo/clean

e|-11---7---6-------------------------|
b|------------------------------------|
g|------------------------------------|
D|------------------------------------|
A|------------------------------------|
E|------------------------------------|

Outro
e|-11---7---6-------------------------|
b|------------------------------------|
g|------------------------------------|
D|------------------------------------|
A|------------------------------------|
E|------------------------------------|

Well that's it, i hope you'll like it, keep up the good work
and thanks to my pal Mark and to all my band mates
FR:Mathew Alibangbang/Philippines.north fairview,quezon city, manila
CHAR!!!
i'll be glad to hear it from you!!!
            
Hard to play? Try these video lessons and learn fast. | Correct




comments powered by Disqus
↑ Back to top | Tablatures and chords are parodies/interpretations of the original songs. You may use it for private study, scholarship, research or language learning purposes only