» » »

Trouble In Tabs (ver.1)

Artists:  A B C D E F G H I J K L M N O P Q R S T U V W X Y Z # 

Trouble In Tabs (ver.1)

Incubus
Rating:
0/5 (0 votes)

Hard to play? Try these video lessons and learn fast.
                (2)
0:00/intro/clean

e---24/////////////////---
b-------------------------
g-------------------------
d-------------------------
a-------------------------
e-------------------------

0:02/main riff/clean

e------------------------------------16-x-16/////-----
b------------------8^----------------17-x-17/////-----
g---9-x-x-x-7-x-xx----9-x-x-x-7-x-xx------------------
d-----------8-----------------8-----------------------
a-----------------------------------------------------
e-----------------------------------------------------

0:24/riff 1/distortion

e-------------------------------3-----------------6////---
b-------------------------------2-----------------5////---
g-----------------------3-------3---------3---------------
d---5-5-5//////-2-2-2-2-3---------2-2-2-2-3---------------
a---5-5-5//////-2-2-2-2-1-x-x-x---2-2-2-2-1-x-x-x---------
e---3-3-3//////-0-0-0-0-----------0-0-0-0-----------------

0:39/chorus/distortion

e-------------------------------
b-------------------------------
g-------7^--------5-5-5--8///---
d---7-7-7^--7-7-7-x-x-x--x///---
a---7-7-5^--7-7-7-3-3-3--6///---
e---5-5-----5-5-5---------------

0:54/fill 1/distortion

e---x--x--x--18--x--x--x--18---
b---x--x--x--x---x--x--x--x----
g---15-15-15-x---15-15-15-x----
d------------------------------
a------------------------------
e------------------------------

2:10/verse/distortion

e----------------------------------------
b----------------------------------------
g---9///-----------7-7-9-----------------
d---9///-----------7-7-9-----------------
a---7///-----------5-5-7-----------------
e---0----0-0-0-0-0-5-5-0-0-0-0-0-0-0-0---

solo?????????????????????????????????yeah right!!!!

song structure-

intro-0:00
main riff-0:02
riff 1-0:24
chorus-0:39
fill 1-0:54
intro-1:03
main riff-1:05
riff 1-1:35
chorus-1:51
fill 1-2:06
verse-2:10
solo-2:51
verse-4:02


end note-this is a super cool song one of the best! 
         theres some fills that you will have to 
         listen to on the cd that i didnt inclued 
         cause im lazy. but heres a basic idea of it 
         there werent any tabs of this song on the 
         internet and its such a good song so this 
         was just done by ear so its not perfect
         but have fun with it.~dustin
            
Hard to play? Try these video lessons and learn fast. | Correct




comments powered by Disqus
↑ Back to top | Tablatures and chords are parodies/interpretations of the original songs. You may use it for private study, scholarship, research or language learning purposes only