>
 >
Summer Romance

Summer Romance Guitar Tabs

Incubus - Summer Romance chords, tabs, tablatures, lyrics

Guitar lessons | Add/correct | Request | Top 50 tabs Artists:  A B C D E F G H I J K L M N O P Q R S T U V W X Y Z 0-9

Summer Romance Guitar Tabs – Incubus

CD, Sheet music, Poster

Do you like Summer Romance? Share with your friends now
Bass TabsBass Tabs v2TabsTabs v2Tabs v3Tabs v4Tabs v5Tabs v6
Revised...

Ablum: S.C.I.E.N.C.E.



LEGEND:

x: muted note/string
h: hammer-on
p: pull-off
/: slide
VVV: vibrato
b(1): bend-fullstep



INTRO RIFF: this is the normal pattern of the intro riff, but there are some
muted notes
	    in between.. just try to adopt the feel of the rhythm..

							     RIFF A
|-----------------------------------------------------------|-------------------|
|-----------------------------------------------------------|-------------------|
|-----------------------------------------------------------|-------------------|
|-----------------------------------------------------------|-------------------|
|-x-x-x--x-x-2h5-2-0h2-------2h5-2-0h2-------2h5-2-0h2------|-2h5-2-0h2.......--|
|----------------------2-2h5-----------3-3h5-----------2-2h5|-------------------|


RIFF B: change with RIFF A, when the bassline kicks in...
|------------------|
|------------------|
|------------------|
|------------------|
|-2h5-0h2----------|
|---------3h5-0h2--|


INTRO LICK: 			       VERSE: the lick in the verse part, i think,
before, the notes were a half higher	      has an octave higher along.. but i don't use it.
that i was mistaken to transcribed..
this one's ok.. (just a human..)

|-7-10-7------------------------------|--7------------------------|
|--------9----------------------------|--7------------------------|
|----------7-9-----7---9---7/9-9-7-7--|--7---7-9-9/11-9-7h9-7-----|
|--------------7p6---6---6------------|--7--------------------9---|
|-------------------------------------|--9------------------------|
|-------------------------------------|--7------------------------|


REFRAIN:
these are the chord progressions used for the refrain
it's all there is to it.. just figure it out...

|-7--5--6--7--|--7--|--7--|
|-8--7--8--7--|--7--|--7--|
|-7--6--6--7--|--7--|--7--|
|-9--7--8--7--|--5--|--7--|
|-7--5--7--9--|-----|--9--|
|-------6--7--|-----|--7--|


CHORUS:
repeat the intro riff, then these chord progression..

|------------------------7--|
|------------------------7--|
|-3-x-x-x-3--------7-6---7--|
|-5-x-x-x-5--4-2-4-7-6---7--|
|-5-x-x-x-5--4-2-4-5-4---9--|
|-3-x-x-x-3--2-0-2-------7--|


SOLO:
sax arranged for guitar (revised w/ just one note... just a human)

				    VVV		     VVV          VVV		  VVV
|---------------------------------10-9--|-------9h10-9---------------------------------|
|-------------------------10---10-------|-10-12----------12-11-10-9---------10h12-9----|
|-------------7---7-9-7-9----9----------|-----------------------------11-12------------|
|-------7---7---7-----------------------|----------------------------------------------|
|-----7---7-----------------------------|----------------------------------------------|
|--10-----------------------------------|----------------------------------------------|

							    VVV
|-------------------------------------------------|-------------------------------------------|
|----------------------9h10p9p7---7---------------|------10---------------10------------------|
|-11-9-10-11p7---9p6------------9---9-7-6-7---9---|--9-7----9---7-9-9p7-9----9-9b(1)p7---9-7--|
|--------------9-----7----------------------9---7-|------------------------------------9------|
|-------------------------------------------------|-------------------------------------------|
|-------------------------------------------------|-------------------------------------------|

|----------------------------------------------|--------------------------------------------------------|
|----------------------------------------------|--------------------------------------------------------|
|----------------------------------------------|-----------------8-9---------------------/9----11p10p9----|
|----------------------------------------------|---------9-11-12-----12-11-11-9-------------11---------11-|
|-14-12-14-9/11-14-11-11-14-11-11-14-9/11-14-9-|-9-11-12------------------------12-11-9-------------------|
|----------------------------------------------|--------------------------------------------------------|

                            VVV
|-------------------------9---------------------------------------------|
|------10---------------10--9----7---7----------------------------------|
|-9------9---------9---9-----------9---9-7-6-7------------------9-6-----|
|--12-------12-------11------------------------9-7---7-9----7-9-----7---|
|-------------12-----------------------------------9------------------9-|
|-----------------------------------------------------------------------|

									         VVV
|------------------------------------------------------------------------------------|
|----------------10-12----12-10------10------------------10-12b(1)-------------------|
|-----------9-11-------11-------11-9----9/11-9----------9------------7-9-7-6-7/9-6---|
|------9-11------------------------------------12-----11-----------------------------|
|-9-12----------------------------------------------12-------------------------------|
|------------------------------------------------------------------------------------|

*end of solo

lesson: solo part of sax, i've arranged for guitar. this is, i believe, 99%
accurate.
	it took me an hour for this one. there are some parts of the solo that's hard
	to play which needs a bit of sweeping & rolling (if you're not aware of that,
	try to check out john petrucci lessons!) anyway, one instance from the solo is
	at the 1st bar. what i did to play this easily it to pick every 3-note pattern
	in an alternate-picking manner (which i think was called
in/out-of-string-picking by
	john petrucci, i can't hardly remember). to explain further, pick the 1st note
	with a downstroke, then the 2nd note with an upstroke, then the 3rd note with
an upstroke..
	and so on.. until you came down with the last 4 notes (i'm talkin about the 1st
bar,
	i hope you still follow).. you can then try to sweep it down. and on the left
hand,
	your index finger does the rolling, in that way the notes wouldn't sound as if
	they were being plucked as chords. and one more thing, not only the first bar
	of the solo needs some basic sweeping & rolling, there are also some parts that
	needs straight sweep.
	anyway, if you get to practice this perfectly, try to add some light distortion
	on your strings then see what it would sound like..

please send comments/suggestion:

ito ay para sa aking mahal na Darice Caoimhe & Doris Day - Cho
EOF





Comments


Popular Incubus tabs & chords
Turning Japanese Chords
Deep Inside Tabs
Deep Inside 1 Tabs
Love Hurts Tabs
Mexico 4 Tabs
Priceless 1 Tabs
Smokin Da Herb Tabs
Stellar 2 Tabs
Take Me To Your Leader Tabs
Here In My Room Ukulele


Song lyrics



↑ Back to top | Tablatures and chords are parodies/interpretations of the original songs. You may use it for private study, scholarship, research or language learning purposes only
© 2014 AZChords.com Contact us | Privacy policy | DMCA | Add/correct tabs | Request tabs | Top 50 tabs