» » »

Smokin The Herb Again Tabs (ver.1)

Artists:  A B C D E F G H I J K L M N O P Q R S T U V W X Y Z # 

Smokin The Herb Again Tabs (ver.1)

Incubus
Rating:
0/5 (0 votes)

Hard to play? Try these video lessons and learn fast.
                EASY TO PLAY, EASY TAB - RHYTHM'S THERE AND ALL. (THE SOLO FITS
UNDER THE MAIN RIFF JUST AS I HAVE TABBED IT.




JUST PLAY THIS RIFF OVER AND OVER AGAIN:

E|--------------------------------|--------------------------------|
B|--------------------------------|--------6-----------------------|
G|----3-------3-------2-------2---|----3-------3-------------------|
D|5---------------4---------------|5-------------------3-----------|
A|--------------------------------|----------------5---------------|
E|--------------------------------|--------------------------------|



ABOUT TWO AND A QUARTER MINUTES
INTO THE SONG THERE'S THIS SOLO:

E|--------------------------------|--------------------------------|
B|--------------------------1---1-|3-------------------------------|
G|----------------------0-2---2---|--------------------------------|
D|------------------0-3-----------|--------------------------------|
A|--------------------------------|--------------------------------|
E|--------------------------------|--------------------------------|



LYRICS:

Yo Yo Yo, Yo, Yo Yo What
Smoking
We're smoking, we're smoking the herb again
We're smoking, we're smoking, we're smoking the herb again
We're smoking, we're smoking, we're smoking the herb again
We're smoking, we're smoking, we're smoking the herb again

Damn, I really wish I could find my sack man
Must have got eaten by Pac-Man
If I had it I could smoke again
Smoke with my friends to the very end
But now I'm trying to comprehend
When's the next time that I'll smoke again
I need to know, please tell when will we smoke again

I got a buddy, his name is Ted
He's got a problem going through his head
He doesn't know how to puff puff give
But I like so I'll teach him and I'll let him live
Everyday we teach him right
When he defies, we have to fight
But at the end of the trying day
We says it's ok and we puff away

Just the other night, I saw you, you were smokin not sharing and being tight
But that's ok, you are my friend, we'll smoking until the very end
The lessons that we put out, we order you to try it out
It's nice to smoke, yea that's what we're all about

Smoking
We're smoking, we're smoking the herb again
We're smoking, we're smoking, we're smoking the herb again
We're smoking, we're smoking, we're smoking the herb again
We're smoking, we're smoking, we're smoking the herb again

Hey, Ho, Hey Ho, Hey, Ho, Hey, Ho, Hey, Ho, Hey, Ho

I smoke, you smoke, we smoke, they smoke, smoking everywhere
I smoke, you smoke, we smoke, they smoke, smoking all together

Smoking
We're smoking, we're smoking the herb again
We're smoking, we're smoking, we're smoking the herb again
We're smoking, we're smoking, we're smoking the herb again
We're smoking, we're smoking, we're smoking the herb again
            
Hard to play? Try these video lessons and learn fast. | Correct




comments powered by Disqus
↑ Back to top | Tablatures and chords are parodies/interpretations of the original songs. You may use it for private study, scholarship, research or language learning purposes only