>
 >
Shaft! 1

Shaft! 1 Guitar Tabs

Incubus - Shaft! 1 chords, tabs, tablatures, lyrics

Guitar lessons | Add/correct | Request | Top 50 tabs Artists:  A B C D E F G H I J K L M N O P Q R S T U V W X Y Z 0-9

Shaft! 1 Guitar Tabs – Incubus

CD, Sheet music, Poster

Do you like Shaft! 1? Share with your friends now
TabsTabs v2
Shaft                                       


Mike Einziger
                                                                           2x
E||----------------------------------||----------------------------10--10--||
B||--------------11/-7-7h9-9-x-9--9--||--------------11/-7-7h9-9-x---------||
G||*--7h9-9-9--7--------------------*||*--7h9-9-9--7----------------------*||
D||*--------------------------------*||*----------------------------------*||
A||----------------------------------||------------------------------------||
D||----------------------------------||------------------------------------||


                                                                      
--------------------------------||----------------------------------||
--3h5-5-5-x-5-x-5-x-5-5-5-5--3--||--------------11/-7-7h9-9-9-9--9--||
--------------------------------||*--7h9-9-9--7--------------------*||
--------------------------------||*--------------------------------*||
--------------------------------||----------------------------------||
--------------------------------||----------------------------------||


                                    5x                              7x
----------------------------10--10--||------------------------------||
--------------11/-7-7h9-9-9---------||------------------------------||
*--7h9-9-9--7----------------------*||*----------------------------*||
*----------------------------------*||*--2------2h3-3-2-2-2-2h3--3h*||
------------------------------------||---2------2h3-3-2-2-2-2h3--3h-||
------------------------------------||---2------2h3-3-2-2-2-2h3--3h-||


                               2x                                    
-------------------------------||-----------------------------------|
-----------5h6-5h6-5h3-3-5--5--||--------------------------9h10h-11-|
*-----------------------------*||----------9h10-9h10-10h11----------|
*--2---2----------------------*||--2---2----------------------------|
---2---2-----------------------||--2---2----------------------------|
---2---2-----------------------||--2---2----------------------------|


                                  2x                                    
|---------------------------------||-----------------------------------|
|---------------------------------||--------------------------9h10h-11-|
|*----------9h10-9h10-9h7-7-9--9-*||----------9h10-9h10-10h11----------|
|*--2---2------------------------*||--2---2----------------------------|
|---2---2-------------------------||--2---2----------------------------|
|---2---2-------------------------||--2---2----------------------------|


                                                 
----------------------------|-------------------|
----------------------------|-------------------|
----------------------------|-------------------|
--2------2h3-3-2-2-2-2h3--3-|--2----------------|
--2------2h3-3-2-2-2-2h3--3-|--2----------------|
--2------2h3-3-2-2-2-2h3--3-|--2----------------|


                                2x                                    
|-------------------------------||-----------------------------------|
|-----------5h6-5h6-5h3-3-5--5--||--------------------------9h10h-11-|
|*-----------------------------*||----------9h10-9h10-10h11----------|
|*--2---2----------------------*||--2---2----------------------------|
|---2---2-----------------------||--2---2----------------------------|
|---2---2-----------------------||--2---2----------------------------|


                                                                  
-----------------------------|-----------------------------------|
----------5h6-5h6-5h3-3-5--5-|--------------------------9h10h-11-|
-----------------------------|----------9h10-9h10-10h11----------|
--2---2----------------------|--2---2----------------------------|
--2---2----------------------|--2---2----------------------------|
--2---2----------------------|--2---2----------------------------|


                               7x                                2x
|------------------------------||--------------------------------||
|------------------------------||------------11/-7-7h9-9-x-9--9--||
|*----------------------------*||*------------------------------*||
|*--2------2h3-3-2-2-2-2h3--3h*||*--2--2-2----------------------*||
|---2------2h3-3-2-2-2-2h3--3h-||---2--2-2-----------------------||
|---2------2h3-3-2-2-2-2h3--3h-||---2--2-2-----------------------||


                                                                  2x
-------------------------10--10-||--------------------------------||
-----------11/-7-7h9-9-x--------||------------11/-7-7h9-9-x-9--9--||
--------------------------------||*------------------------------*||
--2--2-2------------------------||*--2--2-2----------------------*||
--2--2-2------------------------||---2--2-2-----------------------||
--2--2-2------------------------||---2--2-2-----------------------||


                                  2x                                 
--------------------------10--10--||--------------------------------|
------------11/-7-7h9-9-x---------||--------------------------------|
*--------------------------------*||--7h9-9-9-x-9-x-9-x-9-9-9-9--7--|
*--2--2-2------------------------*||--------------------------------|
---2--2-2-------------------------||--------------------------------|
---2--2-2-------------------------||--------------------------------|


                                         
|---------------------------------------|
|---11h12-12-12-x-x-x-x-x-x-x-x-x-x-x-x-|
|*--x--x--x--x--------------------------|
|*--7--8--8--8--------------------------|
|---------------------------------------|
|---------------------------------------|


                                      7x                           
--------------------------------------||--18----------------------|
--11h12-12-12-x--12----12/13--13/14---||----------17----11h-13----|
-------------------------------------*||--------------------------|
--------------x----------------------*||--------------------------|
--------------------------------------||--------------------------|
--------------------------------------||--------------------------|


                                                       
----------------------------|-------------------------|
--14--------------13--------|--------12---------------|
--------12--11----------11--|--10--------------10/-9--|
----------------------------|-------------------------|
----------------------------|-------------------------|
----------------------------|-------------------------|


                                                      
--------------------------|--------------------------|
--11-----11--11b----------|-----------8--7-------10--|
------9-------------------|-----5--6--------6--------|
-----------------------8--|--9-----------------------|
--------------------------|--------------------------|
--------------------------|--------------------------|


                                                                  
--------------------------19--|----------20----------21----------|
-----10-----10--11--10--------|--18----------19----------20------|
--8------8--------------------|------16----------17----------18--|
------------------------------|----------------------------------|
------------------------------|----------------------------------|
------------------------------|----------------------------------|


                                                         
--21/24-24-24-24-24-24-24-24-24-24-24-24-24-24-24-24-24-|
--20/23-23-23-23-23-23-23-23-23-23-23-23-23-23-23-23-23-|
--18/21-21-21-21-21-21-21-21-21-21-21-21-21-21-21-21-21-|
--------------------------------------------------------|
--------------------------------------------------------|
--------------------------------------------------------|


                              15x                              
|------------------------------||-------------------|----|---||
|------------------------------||-------------------|----|---||
|*----------------------------*||-------------------|----|---||
|*--2------2h3-3-2-2-2-2h3--3h*||--2----------------|----|---||
|---2------2h3-3-2-2-2-2h3--3h-||--2----------------|----|---||
|---2------2h3-3-2-2-2-2h3--3h-||--2----------------|----|---||

||||||||||||||||||||||||||||||||||||||||||||||||||||||||||||||||||||||||||||||||||||





Comments


Popular Incubus tabs & chords
Aqueous Transmission Bass Tabs
Battlestar Scralatchtica Bass Tabs
Blood On The Ground Bass Tabs
Talk Shows On Mute 2 Bass Tabs
Turning Japanese Chords
Dig Tabs
Echo Tabs
Nowhere Fast Tabs
The Warmth Easy Tabs
Warning 6 Tabs


Song lyrics



↑ Back to top | Tablatures and chords are parodies/interpretations of the original songs. You may use it for private study, scholarship, research or language learning purposes only
© 2014 AZChords.com Contact us | Privacy policy | DMCA | Add/correct tabs | Request tabs | Top 50 tabs