» » »

Incubus, Pardon Me Tabs (ver.8)

Artists:  A B C D E F G H I J K L M N O P Q R S T U V W X Y Z # 

Pardon Me Tabs (ver.8)

Incubus Tabs
 Rating:
4/5 (4 votes)
Pardon Me  lessons Tabs too difficult? Try these video lessons and learn fast
1
                (Acoustic)
(Intro)
<center>X2</center>
e-----------------------------------------------------------------------------------------------------------------------0-----
b------------------------------0------------------------------0---------------------------0---------------------------0-----
g-------------------4------4----------------------4------4--------------------4------4------------------4-----4---4-----
d---------------2------2---------------------2-------2--------------------2------2-------------------2-----2-------------
a-----------4---------------------4----0--------------------------0----4---------------------0----4-----------------------
E-----------------------------------------------------------------------------------------------------------------------------

e---------------------------------------------------------------------------------------------
b---------------------------------------------------------------------------------------------
g-----6--6--6--6---2-2-2-2-2-2---6--6--6--6---2-2-2-2--2-2-2-2---------------
d-----6--6--6--6---2-2-2-2-2-2---6--6--6--6---2-2-2-2--4-4-4-4---------------
a-----4--4--4--4---0-0-0-0-0-0---4--4--4--4---0-0-0-0--4-4-4-4---------------
E--------------------------------------------------------------------------------------------

Thats all I have for now guys i'll get back to you when i finish the rest of the song!!!! See Ya!
            
Submit corrections

comments powered by Disqus
↑ Back to top | Incubus Tabs for Pardon Me. Lyrics for acoustic guitar and electric guitar. 1 Tablatures and chords are parodies/interpretations of the original songs. You may use it for private study, scholarship, research or language learning purposes only