» » »

Incubus, Pardon Me Bass tabs (ver.1)

Artists:  A B C D E F G H I J K L M N O P Q R S T U V W X Y Z # 

Pardon Me Bass tabs (ver.1)

Incubus Tabs
 Rating:
4/5 (4 votes)
Pardon Me lessons Tabs too difficult? Try these video lessons and learn fast
1
                Good song great bass lines. Easy to play, listen to song for rhythm
Intro
G|------------|----------------|
D|------------|----------------|
A|--4---------|--4-------------|  (x2)
E|-------5----|-------5--0\12--|
B|------------|----------------|

G|-------------------------------------------|
D|-------------------------------------------|
A|--4-------------44444444-------------------|
E|-------5-555555----------5-5-5-5--0-0-0-0--|
B|-------------------------------------------|

G|--------------------------------------------------------------------|
D|--------------------------------------------------------------------|
A|--4-4-4-4-4-4-4-4-----------------4-4-4-4-4-4-4-4-------------------|
E|------------------5-5-5-5-5-5-5-5-----------------5-5-5-5--0-0-0-0--|
B|--------------------------------------------------------------------|

G|-------------------------------|
D|-------------------------------|
A|--4-4-4-4-4-4--4-7-7-7---------|
E|-----------------------7-7-5-5-|
B|-------------------------------|


Verse
G|-----------------------------------------------|
D|-----------------------------------------------|
A|-----------------------------------------------|
E|--4-4---0-0---11-11-11-11-11-11/6/11-11-11-11--|
B|-----------------------------------------------|

G|--------------------------------------------------|
D|--------------------------------------------------|
A|--------------------------------------------------|
E|--9-9---7-7---2-2---10-10-10-10-10-10/3/10-10-10--|
B|--------------------------------------------------|

G|-----------------------------------------------|
D|-----------------------------------------------|
A|--4-4-----------------------------------11h12--|
E|--------4-4---12-12-12-12/6/12-12-12-12--------|
B|-----------------------------------------------|


G|---------------------------------------------|
D|---------------------------------------------|
A|---------------------------------------------|
E|--7-7---1-1---5-5-5-5-5-5-5-5-5-5-5-5-5-5-5--| 
B|---------------------------------------------|


Chorus
G|---------------------------------------------------|
D|---------------------------------------------------|
A|---------------------------------------------------| (x2)
E|--9-9-9-9-9--7-7-7-7-7--5-5-5-5-5--0h2-00--0h2-00--|
B|---------------------------------------------------|

G|-----------------------------------------------------------|
D|-----------------------------------------------------------|
A|---------------------------------7-7-7-7-7-7-7-7--6-6-6-6--|
E|--9-9-9-9-9-9--7-7-7-7-7--5-5-5----------------------------|
B|-----------------------------------------------------------|

B|---------------------------------------------------|
D|---------------------------------------------------|
A|---------------------------------------------------|
E|--9-9-9-9-9--7-7-7-7-7--5-5-5-5-5--0h2-00--0h2-00--|
B|---------------------------------------------------|


Post-Chorus
G|------------------------|
D|------------------------|
A|------------------------|
E|--4-4---0-0---4-4---00--|
B|------------------------|


Interlude
G|-----------|
D|-----------|
A|-----------|
E|-----------|
B|--X-X-X-X--|


G|---------------------------------|
D|---------------------------------|
A|--4-------4-----------4-------4--|
E|------5-------5--/12------5------|
B|---------------------------------|      


Outro
G|-----------------------------------------------------------------|
D|-----------------------------------------------------------------|
A|--4-4-4-4-4-4-4-4-------------------4-4-4-4-4-4-4-4--------------|
E|-------------------5-5-5-5-5-5-5-5-------------------5-5-5-5--0--|
B|-----------------------------------------------------------------|
            
Submit corrections

comments powered by Disqus
↑ Back to top | Incubus Bass for Pardon Me. Lyrics for acoustic guitar and electric guitar. 1 Tablatures and chords are parodies/interpretations of the original songs. You may use it for private study, scholarship, research or language learning purposes only