» » »

Nowhere Fast Tabs (ver.2)

Artists:  A B C D E F G H I J K L M N O P Q R S T U V W X Y Z # 

Nowhere Fast Tabs (ver.2)

Incubus
Rating:
0/5 (0 votes)

Hard to play? Try these video lessons and learn fast.
                Tuning: Dropped D (DADGBE)


Stunning song, really does make you feel good and it sooo much fun to play!

Intro
~~~~~
|----------------------------------|
|----------------------------------|
|--0-0-----------------------------|
|------4-4-0-0---------------------|
|------------------3---3---8---8---|
|--------------0-0-3---3---8---8---|

Chorus
~~~~~~
|-----------------------------|-------------------------------|---------------------------------|
|-----------------------------|-------------------------------|---------------------------------|
|-----------------------------|-------------------------------|---------------------------------|
|-0--0--0--0--0-3-3-3-3-8-8-8-|-x--x-x-0--0-0-0-3-3-3-3-8-8-8-|-0--0--0--0--0-10-10-10-10-8-8-8-|
|-0--0--0--0--0-3-3-3-3-8-8-8-|-x--x-x-0--0-0-0-3-3-3-3-8-8-8-|-0--0--0--0--0-10-10-10-10-8-8-8-|
|-0--0--0--0--0-3-3-3-3-8-8-8-|-x--x-x-0--0-0-0-3-3-3-3-8-8-8-|-0--0--0--0--0-10-10-10-10-8-8-8-|

Verse
~~~~~
|--2--------14--------5--------7-|
|--2------------------5--------7-|
|--2------------------5--------6-|
|--------------------------------|
|--------------------------------|
|--------------------------------|

Bridge
~~~~~~
|-----------------------9-------10----------------------------------------|
|-------------------------10-------10-------------5---------------7-------|
|--------------11------------11-------11------------7---7-----------9-----|
|------4---4------12--------------------------7-------7-------9-------9---|
|----5---5-----------12---------------------5---5-----------7---7-------7-|
|--0--------------------------------------0---------------7---------------|

|------------------------------------------|
|------------------------------------------|
|--11-11--14-14--11-11--11-9-7-6/7-7-6/7-7-|
|--11-11--14-14--11-11--11-9-7-6/7-7-6/7-7-|
|---9--9--12-12---9--9---9-7-5-4/5-5-4/5-5-|
|------------------------------------------|

Outro
~~~~~
|----------------------------------|
|----------------------------------|
|----------------------------------|
|--0--0--0--0--0-10-10-10-10-8-8-8-|
|--0--0--0--0--0-10-10-10-10-8-8-8-|
|--0--0--0--0--0-10-10-10-10-8-8-8-|


After the outro throw down your guitar and relax to consiquence and the warmth
Chears again. Spadey
            
Hard to play? Try these video lessons and learn fast. | Correct




comments powered by Disqus
↑ Back to top | Tablatures and chords are parodies/interpretations of the original songs. You may use it for private study, scholarship, research or language learning purposes only