» » »

New Skin Tabs (ver.4)

Artists:  A B C D E F G H I J K L M N O P Q R S T U V W X Y Z # 

New Skin Tabs (ver.4)

Incubus
Rating:
0/5 (0 votes)

Hard to play? Try these video lessons and learn fast.
                (Correct)
Effects: Distortion, Flanger

Mike Version 100% correct 

Standard Tuning

Intro:(w/distortion)
E------------------------------------------|
B------------------------------------------|
G----4-4//--------4-4//---4-4//------4-4---|
D----4-4//--------4-4//---4-4//------4-4---|
A----2-2//--------2-2//---2-2//------2-2---|
E----2-2//--------2-2//---2-2//------2-2---|

And them!
E----------------------------------------------|
B----------------------------------------------|
G----4-4-4-4--------------4-4-4-4---2--5-5-5---|
D----4-4-4-4-x-5--3-3/----4-4-4-4-x-2--5-5-5---|
A----2-2-2-2-x-5--3-3/----2-2-2-2-x-0--3-3-3---| X3
E----2-2-2-2-x-3--1-1/----2-2-2-2-x-0--3-3-3---|

E----------------------------------------------|
B----------------------------------------------|
G----4-4-4-4--------------4-4-4-4---2--7-7-7---|
D----4-4-4-4-x-5--3-3/----4-4-4-4-x-2--7-7-7---|
A----2-2-2-2-x-5--3-3/----2-2-2-2-x-0--5-5-5---|
E----2-2-2-2-x-3--1-1/----2-2-2-2-x-0--5-5-5---|

Verse:(distortion+flanger)
E-----------------------------|-----------------|
B--------12----------13-------|-----------------|
G--11-11----11-11-12----12-12-|-------5-5-5-----|
D-----------------------------|-------5-5-5-----|
A-----------------------------|-X4----3-3-3-----| 
E-----------------------------|-------3-3-3-----|

E--------------------------|---------------------|
B--------12----------13----|------13-15-13--19^--|
G--11-11----11-11-12----12-|---12-----------19^--|
D--------------------------|---------------------|
A--------------------------|-X4------------------|
E--------------------------|---------------------|

Pre-Chorus 1:(w/distortion)
E-----------------------------------------------|
B-----------------------------------------------|
G--4-4-4-4------5--5-5--x-4-4-4-4------5--5-5---|
D--4-4-4-4--4---5--5-5--x-4-4-4-4--4---5--5-5---|
A--2-2-2-2--4---3--3-3--x-2-2-2-2--4---3--3-3---|
E--2-2-2-2--2---3--3-3--x-2-2-2-2--2---3--3-3---|

And Them!
E-----------------------------------------------|
B-----------------------------------------------|
G--4-4-4-4------5--5-5--x-4-4-4-4------7--7-7---|
D--4-4-4-4--4---5--5-5--x-4-4-4-4--4---7--7-7---|
A--2-2-2-2--4---3--3-3--x-2-2-2-2--4---5--5-5---|
E--2-2-2-2--2---3--3-3--x-2-2-2-2--2---5--5-5---|

Chorus 1:(w/distortion)
E:----------------------------------------|
B:----------------------------------------|
G:----------9---9-9------------10-10-10---|
D:--7--7-7--9---9-9--12-12-12--10-10-10---|
A:--7--7-7--7---7-7--10-10-10---8--8--8---|
E:--5--5-5--7---7-7---8--8--8---8--8--8---|

And Them!
E:----------------------------------------|
B:----------------------------------------|
G:----------9---9-9------------12-12-12---|
D:--7--7-7--9---9-9--12-12-12--12-12-12---|
A:--7--7-7--7---7-7--10-10-10--10-10-10---| X2
E:--5--5-5--7---7-7---8--8--8--10-10-10---|

Pre-Verse: (w/distortion)
E----------------------------------------------|
B----------------------------------------------|
G----4-4-4-4--------------4-4-4-4---2--5-5-5---|
D----4-4-4-4-x-5--3-3/----4-4-4-4-x-2--5-5-5---|
A----2-2-2-2-x-5--3-3/----2-2-2-2-x-0--3-3-3---| 
E----2-2-2-2-x-3--1-1/----2-2-2-2-x-0--3-3-3---|

Verse:(distortion+flanger)
E-----------------------------|-----------------|
B--------12----------13-------|-----------------|
G--11-11----11-11-12----12-12-|-------5-5-5-----|
D-----------------------------|-------5-5-5-----|
A-----------------------------|-X4----3-3-3-----| 
E-----------------------------|-------3-3-3-----|

E--------------------------|---------------------|
B--------12----------13----|------13-15-13--19^--|
G--11-11----11-11-12----12-|---12-----------19^--|
D--------------------------|---------------------|
A--------------------------|-X4------------------|
E--------------------------|---------------------|

Pre-Chorus 2:(w/distortion)
E-----------------------------------------------|
B-----------------------------------------------|
G--4-4-4-4------5--5-5--x-4-4-4-4------5--5-5---|
D--4-4-4-4--4---5--5-5--x-4-4-4-4--4---5--5-5---|
A--2-2-2-2--4---3--3-3--x-2-2-2-2--4---3--3-3---| X3
E--2-2-2-2--2---3--3-3--x-2-2-2-2--2---3--3-3---|

And Them!
E-----------------------------------------------|
B-----------------------------------------------|
G--4-4-4-4------5--5-5--x-4-4-4-4------7--7-7---|
D--4-4-4-4--4---5--5-5--x-4-4-4-4--4---7--7-7---|
A--2-2-2-2--4---3--3-3--x-2-2-2-2--4---5--5-5---|
E--2-2-2-2--2---3--3-3--x-2-2-2-2--2---5--5-5---|

Chorus 2:(w/distortion)
E:----------------------------------------|
B:----------------------------------------|
G:----------9---9-9------------10-10-10---|
D:--7--7-7--9---9-9--12-12-12--10-10-10---|
A:--7--7-7--7---7-7--10-10-10---8--8--8---|
E:--5--5-5--7---7-7---8--8--8---8--8--8---|

And Them!
E:----------------------------------------|
B:----------------------------------------|
G:----------9---9-9------------12-12-12---|
D:--7--7-7--9---9-9--12-12-12--12-12-12---|
A:--7--7-7--7---7-7--10-10-10--10-10-10---| X4
E:--5--5-5--7---7-7---8--8--8--10-10-10---|

Bridge: (Distortion)
E------------------------------------------|
B------------------------------------------|
G----4-4//--------4-4//---4-4//------4-4---|
D----4-4//--------4-4//---4-4//------4-4---|
A----2-2//--------2-2//---2-2//------2-2---|
E----2-2//--------2-2//---2-2//------2-2---|

And Them! (Distortion+flanger)
E-----------4^--------------4^---------------|
B--------------------------------------------|
G---7/--7/-----7/--7/---7/------7/---7//-----|
D---9/--x/-----x/--8/---9/------x/---9//-----|
A--10/--8/-----8/--9/--10/------8/--10//-----|
E---0/--9/-----9/--0/---0/------9/---0//-----|

E-----------------------------------------------|
B-----------------------------------------------|
G----4-4//--------4-4//---4-4//------4-4-4x4x4--|
D----4-4//--------4-4//---4-4//------4-4-4x4x4--|
A----2-2//--------2-2//---2-2//------2-2-2x2x2--|
E----2-2//--------2-2//---2-2//------2-2-2x2x2--|

Pre-Chorus 3:(w/distortion)
E-----------------------------------------------|
B-----------------------------------------------|
G--4-4-4-4------5--5-5--x-4-4-4-4------5--5-5---|
D--4-4-4-4--4---5--5-5--x-4-4-4-4--4---5--5-5---|
A--2-2-2-2--4---3--3-3--x-2-2-2-2--4---3--3-3---| X2
E--2-2-2-2--2---3--3-3--x-2-2-2-2--2---3--3-3---|

Chorus 3:(w/distortion)
E----------------------------------------|
B----------------------------------------|
G----------9---9-9------------10-10-10---|
D--7--7-7--9---9-9--12-12-12--10-10-10---|
A--7--7-7--7---7-7--10-10-10---8--8--8---|
E--5--5-5--7---7-7---8--8--8---8--8--8---|

E----------------------------------------|
B----------------------------------------|
G----------9---9-9------------12-12-12---|
D--7--7-7--9---9-9--12-12-12--12-12-12---|
A--7--7-7--7---7-7--10-10-10--10-10-10---| X2
E--5--5-5--7---7-7---8--8--8--10-10-10---|

And them!
E----------------------------------------|
B----------------------------------------|
G--2--2-2------------7--7--7---5--5--5---|
D--2--2-2--2---2-2---5--5--5---5--5--5---|
A--0--0-0--2---2-2---3--3--3---3--3--3---| X3
E--0--0-0--0---0-0---0--0--0---3--3--3---|

E----------------------------------------|
B----------------------------------------|
G----------9---9-9------------12-12-12---|
D--7--7-7--9---9-9--12-12-12--12-12-12---|
A--7--7-7--7---7-7--10-10-10--10-10-10---|
E--5--5-5--7---7-7---8--8--8--10-10-10---|

Outro: (Distortion)
E----------------------------------------------|
B----------------------------------------------|
G----4-4-4-4--------------4-4-4-4---2--5-5-5---|
D----4-4-4-4-x-5--3-3/----4-4-4-4-x-2--5-5-5---|
A----2-2-2-2-x-5--3-3/----2-2-2-2-x-0--3-3-3---| X3
E----2-2-2-2-x-3--1-1/----2-2-2-2-x-0--3-3-3---|

E--------------------------|
B--------------------------|
G----4-4-4-4---------------|
D----4-4-4-4-x-5//////-----|
A----2-2-2-2-x-5//////-----|
E----2-2-2-2-x-3//////-----|
            
Hard to play? Try these video lessons and learn fast. | Correct




comments powered by Disqus
↑ Back to top | Tablatures and chords are parodies/interpretations of the original songs. You may use it for private study, scholarship, research or language learning purposes only