» » »

New Skin Tabs (ver.1)

Artists:  A B C D E F G H I J K L M N O P Q R S T U V W X Y Z # 

New Skin Tabs (ver.1)

Incubus
Rating:
0/5 (0 votes)

Hard to play? Try these video lessons and learn fast.
                Incubus

yet another ver. of new skin, but i'm pretty sure this is  one of hte best.

ive got the morning view sessions and seena  few live versions of this. he plays the interlude differnt a few times..
feel free to change it as you see fit.

any questions, suggestions, praise or requests send to



intro: timing can be tricky... hope this helps.

(time sig)

5                       3           5
4                       4           4

e---------------------------------------------------------------
B-----------------------------------------------------------(0)-
G--4-4------------------4-4---------4-4-----------------4---(0)-
D--4-4------------------4-4---------4-4-----------------4---(0)-
A--2-2------------------2-2---------2-2-----------------2-------
E--2-2------------------2-2---------2-2-----------------2-------

   1    2   3   4   5   1   2   3   1    2   3   4   5     


INTRO 2


e--------------------------------------
B--------------------------------------
G-2X-4-4X4-4--------2-4-4---4--7----7--
D-2X-4-4X4-4-3------2-4-4-X-4X-7----7--
A-0X-2-2X2-2-3--XX--0-2-2-X-2X-5-XX-5--
E----2-2X2-2-1--XX----2-2-X-2X-5-XX-5--

e--------------------------------------
B--------------------------------------
G-2X-4-4X4-4--------2-4-4---4--7----7--
D-2X-4-4X4-4-3------2-4-4-X-4X-7----7--
A-0X-2-2X2-2-3--XX--0-2-2-X-2X-5-XX-5--
E----2-2X2-2-1--XX----2-2-X-2X-5-XX-5--

e--------------------------------------
B--------------------------------------
G-2X-4-4X4-4--------2-4-4---4--7----7--
D-2X-4-4X4-4-3------2-4-4-X-4X-7----7--
A-0X-2-2X2-2-3--XX--0-2-2-X-2X-5-XX-5--
E----2-2X2-2-1--XX----2-2-X-2X-5-XX-5--

e-----------------------------------------
B-------------------------------33333333--
G-2X-4-4X4-4--------2-4-4---4---22222222--
D-2X-4-4X4-4-3------2-4-4-X-4X--00000000--
A-0X-2-2X2-2-3--XX--0-2-2-X-2X------------
E----2-2X2-2-1--XX----2-2-X-2X------------

Verse: flanger. ive seen so many differnt variations of this.
theres so many differnt ones, pretty sure this is right, but take your pick.

(fingering)

 (2  2  2  1 2  2 3  2 3 2 3 2  3   4)
e----------------------------------------
B----------10-----12---13--13---13H14----
G-11-11-11---11-11--/12--12--12----------
D----------------------------------------
A----------------------------------------
E----------------------------------------

e----------------------------------------
B----------10-----12---13--13---13H14----
G-11-11-11---11-11--/12--12--12----------
D----------------------------------------
A----------------------------------------
E----------------------------------------

e----------------------------------------
B----------10-----12---13--13---13H14----
G-11-11-11---11-11--/12--12--12----------
D----------------------------------------
A----------------------------------------
E----------------------------------------
                     (FLANGER OFF)
e----------------------------------------
B----------10-----12---------------------
G-11-11-11---11-11--/-5x-5-5-------------
D---------------------5x-5-5-------------
A---------------------3x-3-3-------------
E---------------------3x-3-3-------------


 (2  2  2  1 2  2 3  2 3 2 3 2  3   4)
e----------------------------------------
B----------10-----12---13--13---13H14----
G-11-11-11---11-11--/12--12--12----------
D----------------------------------------
A----------------------------------------
E----------------------------------------

e----------------------------------------
B----------10-----12---13--13---13H14----
G-11-11-11---11-11--/12--12--12----------
D----------------------------------------
A----------------------------------------
E----------------------------------------

e----------------------------------------
B----------10-----12---13--13---13H14----
G-11-11-11---11-11--/12--12--12----------
D----------------------------------------
A----------------------------------------
E----------------------------------------


                         (slow slide)
e----------------------------------------
B----------10-----12--12/------------21b-
G-11-11-11---11-11--/-12/------------21b-
D---------------------12/------------21b-
A----------------------------------------
E----------------------------------------

PRE CHORUS.

e-----------------------------
B-----------------------------
G-4-4-4------5-5--------------
D-4-4-4-X-4X-5-5--------------x4
A-2-2-2-X-4X-3-3--------------
E-2-2-2-X-2X-3-3--------------

Chours 1

e----------------------------------------------------
B----------------------------------------------------
G-------9-9---------10-10-------9-9----------12-12---
D--7----9-9--12-12--10-10---7---9-9--12-12---12-12---X2
A--7----7-7--10-10--8--8----7---7-7--10-10---10-10---
E--5--0-0-0--8--8---8--8----5-0-0-0--8--8----10-10---


e-----------------------------------------
B-------------------------------33333333--
G-2X-4-4X4-4--------2-4-4---4---22222222--
D-2X-4-4X4-4-3------2-4-4-X-4X--00000000--
A-0X-2-2X2-2-3--XX--0-2-2-X-2X------------
E----2-2X2-2-1--XX----2-2-X-2X------------

Verse

Same as verse one.

PRE CHORUS.

e-----------------------------
B-----------------------------
G-4-4-4------5-5--------------
D-4-4-4-X-4X-5-5--------------x8
A-2-2-2-X-4X-3-3--------------
E-2-2-2-X-2X-3-3--------------

Chours 1

e----------------------------------------------------
B----------------------------------------------------
G-------9-9---------10-10-------9-9----------12-12---
D--7----9-9--12-12--10-10---7---9-9--12-12---12-12---x2
A--7----7-7--10-10--8--8----7---7-7--10-10---10-10---
E--5--0-0-0--8--8---8--8----5-0-0-0--8--8----10-10---

e-----------------------------------------------------
B-----------------------------------------------------
G-----------5--5----------------5-5-------------------
D--7-X-2-2--5--5--3-3--7-X-2-2--5-5--5-5-5------------x2
A--7-X-2-2--3--5--3-3--7-X-2-2--3-3--5-5-5------------
E--5-X-0-0--3--3--1-1--5-X-0-0--3-3--3-3-3------------

intro again.

(time sig)

5                       3           5
4                       4           4

e---------------------------------------------------------------
B-----------------------------------------------------------(0)-
G--4-4------------------4-4---------4-4-----------------4---(0)-
D--4-4------------------4-4---------4-4-----------------4---(0)-
A--2-2------------------2-2---------2-2-----------------2-------
E--2-2------------------2-2---------2-2-----------------2-------

   1    2   3   4   5   1   2   3   1    2   3   4   5     


interlude.

(play wiht delay and volume swells)

e--------10~~-------------------------------
B-9~~---------------7~~--9~~b---------------
G-----8~---------8~-------------------------
D-------------7~---------------7~-7h9~~-----
A-------------------------------------------
E-------------------------------------------

interlude cont.

e------------------------------------------------------------------
B------------------------------------------------------------------
G--4-4-4-4----------4-4-4-4----------4-4-4-4------4-4--4-4-4-4--4--
D--4-4-4-4----------4-4-4-4----------4-4-4-4------4-4--4-4-4-4--4--
A--2-2-2-2----------2-2-2-2----------2-2-2-2------2-2--2-2-2-2--2--
E--2-2-2-2----------2-2-2-2----------2-2-2-2------2-2--2-2-2-2--2--
                                                    pm .   .
pre chorus

e-----------------------------
B-----------------------------
G-4-4-4------5-5--------------
D-4-4-4-X-4X-5-5--------------x4
A-2-2-2-X-4X-3-3--------------
E-2-2-2-X-2X-3-3--------------


chorus

e----------------------------------------------------
B----------------------------------------------------
G-------9-9---------10-10-------9-9----------12-12---
D--7----9-9--12-12--10-10---7---9-9--12-12---12-12---x2
A--7----7-7--10-10--8--8----7---7-7--10-10---10-10---
E--5--0-0-0--8--8---8--8----5-0-0-0--8--8----10-10---

e-----------------------------------------------------
B-----------------------------------------------------
G-----------5--5----------------5-5-------------------
D--7-X-2-2--5--5--3-3--7-X-2-2--5-5--5-5-5------------x2
A--7-X-2-2--3--5--3-3--7-X-2-2--3-3--5-5-5------------
E--5-X-0-0--3--3--1-1--5-X-0-0--3-3--3-3-3------------

OUTRO.


e--------------------------------------
B--------------------------------------
G-2X-4-4X4-4--------2-4-4---4--7----7--
D-2X-4-4X4-4-3------2-4-4-X-4X-7----7--
A-0X-2-2X2-2-3--XX--0-2-2-X-2X-5-XX-5--
E----2-2X2-2-1--XX----2-2-X-2X-5-XX-5--

e--------------------------------------
B--------------------------------------
G-2X-4-4X4-4--------2-4-4---4--7----7--
D-2X-4-4X4-4-3------2-4-4-X-4X-7----7--
A-0X-2-2X2-2-3--XX--0-2-2-X-2X-5-XX-5--
E----2-2X2-2-1--XX----2-2-X-2X-5-XX-5--

e--------------------------------------
B--------------------------------------
G-2X-4-4X4-4--------2-4-4---4--7----7--
D-2X-4-4X4-4-3------2-4-4-X-4X-7----7--
A-0X-2-2X2-2-3--XX--0-2-2-X-2X-5-XX-5--
E----2-2X2-2-1--XX----2-2-X-2X-5-XX-5--

e---------------------
B---------------------
G-2-2-4-4X4-5-~~------
D-2X2-4-4X4-5-~~------
A-0X0-2-2X2-3-~~------
E-----2-2X2-3-~~------

hope this helps. 
stee.
            
Hard to play? Try these video lessons and learn fast. | Correct




comments powered by Disqus
↑ Back to top | Tablatures and chords are parodies/interpretations of the original songs. You may use it for private study, scholarship, research or language learning purposes only