» » »

Incubus, I Wish You Were Here Tabs (ver.3)

Artists:  A B C D E F G H I J K L M N O P Q R S T U V W X Y Z # 

I Wish You Were Here Tabs (ver.3)

Incubus Tabs
 Rating:
4/5 (4 votes)
I Wish You Were Here lessons Tabs too difficult? Try these video lessons and learn fast
                Tuning: STANDARD TUNING (EADGBe)
 
This Is the first single from Incubus' album Morning View. I believe this is one of
the better tabs written for this song so feel free to correct and send me feedback.
GOOD LUCK! (I had to edit this tab because people kept telling me the lyrics were
wrong, but now I fixed it so ENJOY!) I would like to give partial credit to 
MXtabs member shiznitophil311 (Phil Kean) for using partial information. Check out
his version for this tab.
 
---------------------------------------|--------------------------------------
---------------------------------------|--------------------------------------
-4--4-4--4-4--4-4-4--------------------|---9/11-11-11-------------------------
-4--4-4--4-x--x-x-x--4-4-4-4/7-7--2--2-|-2-x/x--x--x--------------------------
-2--2-2--2-2--2-2-2--4-4-4-4/7-7--2--2-|-2-7/9--9--9--------------------------
-----------0--0-0-0--2-2-2-2/5-5--0--0-|-0------------------------------------
 

-4--4-4--4-4--4-4-4----------------------4--4-4--4-4--4-4-4-------------------
-4--4-4--4-4--4-4-4--4-4-4-4/7-7--2--2---4--4-4--4-4--4-4-4--4-4-4-4/7-7-2-2--
-2--2-2--2-2--2-2-2--4-4-4-4/7-7--2--2---2--2-2--2-2--2-2-2--4-4-4-4/7-7-2-2--
---------------------2-2-2-2/5-5--0--0-----------------------2-2-2-2/5-5-0-0--
 
 The verse was difficult tab, the guitartist may be using an effect but it's hard to tell. 
 
 Verse Riff: 4x
 ()=play while sliding 9/11
 
-(0)---------(0)------|--------12-------|---------------------0-------
----------0-----------|------0----0-9h10|--------9-------0--0-0-0-0-0-
-9-9/11-11--9---9/11 9|-----------------|------9---9----11-11-9-9-9-9-
----------------------|-9h11------------|-9h11-------11---------------
----------------------|-----------------|-----------------------------
----------------------|-----------------|-----------------------------
 
 Bridge: Repeat A lot

-----------|------------------------------------------------------------------
-----3-----|------------------------------------------------------------------
-2---2-----|------------------------------------------------------------------
-2---0-----|------------------------------------------------------------------
-0---------|------------------------------------------------------------------
-----------|------------------------------------------------------------------
  
 Chorus: 2x
 
-4--4-4--4-4--4-4-4----------------------4--4-4--4-4--4-4-4-------------------
-4--4-4--4-4--4-4-4--4-4-4-4/7-7--2--2---4--4-4--4-4--4-4-4-4-4-4-4/7-7-2--2--
-2--2-2--2-2--2-2-2--4-4-4-4/7-7--2--2---2--2-2--2-2--2-2-2-4-4-4-4/7-7-2--2--
---------------------2-2-2-2/5-5--0--0----------------------2-2-2-2/5-5-0--0--

Lyrics:
I dig my toes into the sand 
The ocean looks like a thousand diamonds strewn across the blue plain
I need to catch the wind
Pretend that I am weightless
And in this moment I am happy 
I wish you were here... 
I lay my head onto the sandthe sky resembles a 
 backlit canopy with holes punched in it 
I'm counting UFO's
I singal them with my lighter
And in this moment i am happy
I wish you were here...
The world's a roller coaster
And i am not traped in
But maybe i should hold with care but my hands are busy in the air

					That's It!
            
Submit corrections

comments powered by Disqus
↑ Back to top | Incubus Tabs for I Wish You Were Here. Lyrics for acoustic guitar and electric guitar. Tablatures and chords are parodies/interpretations of the original songs. You may use it for private study, scholarship, research or language learning purposes only