» » »

Incubus, I Miss You Tabs (ver.3)

Artists:  A B C D E F G H I J K L M N O P Q R S T U V W X Y Z # 

I Miss You Tabs (ver.3)

Incubus Tabs
Rating:
0/5 (0 votes)
I Miss You lessons Tabs too difficult? Try these video lessons and learn fast
                
I Miss You (Acoustic). Dropped D

This is a very simple song, but i like it. Voila, a good tab of it.

Hammer on: h



VERSE: (x12) 
						(Last time)
e|------------------------------------  ------------------------------
B|------------------------------------  ------------------------------
G|------------------------7(harmonic)-  ------------------------------
D|-----0-----------0----0-------------  -----0-----------0---0--------
A|---4---4---4---4---4----------------  ---4---4---4---4---4----------
D|-0-------0---5----------------------  -0-------0---5----------------

CHORUS:

e|----------------------------------0--0--0---0--0--------------------
B|-----0----------------------------3--3--3---3--3-------0------------
G|-------0-----------0--0-----------2--2--2---2--2---------0----------
D|---4-----4-----0---0--0--(0)-0----4--4--4---4--4-----4-----4--------
A|-2---------0---0---0--0------0----------0---0--0---2---------0------
D|---------------5---5--5------0----------0---------------------------

e|--------------------------------------------------------------------
B|-------------------15-----15---15-15-15-------0---------------------
G|------0--0----------x--0---x----x--0--0-0-------0----------0--0-0---
D|--0---0--0----0----12-12--12---12-12-12-0---4-----4----0---0--0-0---
A|--0---0--0----0-----0--0---0-------0--0---2---------0--0---0--0-----
D|--5---5--5----0-----0--0---0-------0--0----------------5---5--5-----

e|--------------------------------------------------------------------
B|---------------------(0)-------(0)------------------0---------------
G|---------4---4-4---0--0-0----0--0-0---0--0-0---0--0-0--0------------
D|-0--0-0--4---4-4---4--4-4--0-0--0-0h4-4--4-4p0-0--0-0--0------------
A|-0--0-0--2---2-2---5--5-5--5-5--5-5---5--5-5---5--5-5---------------
D|-0--0-0--4---4-4---5--5-5--5-5--5-5---5--5-5---5--5-5---------------


VERSE: (x16)                      (Last Time)

				e|---------------------------------
				B|---------------------------------
				G|---------------------------------
				D|-----0-----------0---0-----------
				A|---4---4---4---4---4-------------
				D|-0-------0---5-------------------


CHORUS:




VERSE: (x4)



End in:

e|------5----
B|-----3-----
G|----2------
D|---0-------
A|--0--------
D|-0---------

That's all. I hope you have a good opinion of this tab. Bye
            

comments powered by Disqus
↑ Back to top | Incubus Tabs for I Miss You. Lyrics for acoustic guitar and electric guitar. Tablatures and chords are parodies/interpretations of the original songs. You may use it for private study, scholarship, research or language learning purposes only