>
 >
Hilikus 2

Hilikus 2 Bass Tabs

Incubus - Hilikus 2 chords, tabs, tablatures, lyrics

Guitar lessons | Add/correct | Request | Top 50 tabs Artists:  A B C D E F G H I J K L M N O P Q R S T U V W X Y Z 0-9

Hilikus 2 Bass Tabs – Incubus

CD, Sheet music, Poster

Do you like Hilikus 2? Share with your friends now
Bass Tabs
This is an awesome song I hopr you enjoy it. It is fun to play.It might be a little confusing but you will 
get it sooner or later.Incubus Rocks!!

Intro
G---------5^----------------------------------------------
D-----5-7-----7-5-7---77----------------------------------
A--------------------------5-----------12----12\----------E-----------------------------5----5/--------------------

G---------------------------------------------------------
D-----5>7-5>7-5>7----5>7-5>7-5>7----5>7-5>7-5>7-----------
A---------------------------------------------------------
E---------------------------------------------------------

G-------------------------------------------
D-----5>7-5>7-5>7----7----------------------
A--------------------------7\---------------
E-------------------------------------------

G-------------4------------------12-------12--------------
D--------5>7-----7-5-7-----11>12----12-11----11\----------
A-----0---------------------------------------------------
E----------------------5---------------------------------

G-------------4----------7--8--7--8---------------
D--------5>7-----7-5-7---7--8--7--8---------------
A----0-------------------5--6--5--6---------------
E------------------------------------------------

PreChorus
G---------------------------------------------------------
D---------------------------------------------------------
A------------------3---3-3-3-------------3-3--------------
E-----5--5---5-5---------------5-5---5--------------------

G---------------------------------------------------------
D-----04-5-6----------------------------------------------
A-----------------------3-3-------------------------------
E--------------5-5--5---------02-3-4----------------------

G---------------------------------------------------------
D-------------------5/-10---10-10-10-10-10----------------
A---------------3-3---------------------------------------
E-----5-5---5---------------------------------------------

Chorus
G---------------------------------------------------------
D---------------------------------------------------------
A---------------3-3----------------3-3--------------------
E-----5-5---5------------5-5---5--------------------------


G---------------------------------------------------------
D---------------------------------------------------------
A---------------3-3----------------3-3--3--3--3-3--------
E-----5-5---5------------5-5---5--------------------------


G--------------12-------12--------------4-----------------
D--------11>12----12-11----11\-----5>7-----7-5-7----------
A---------------------------------------------------------
E-----5-------------------------5-------------------------

G-----7--8--7--8------------------------------------------
D-----7--8--7--8------------------------------------------
A-----5--6--5--6------------------------------------------
E---------------------------------------------------------



Bridge
G---------5^----------------------------------------------
D-----5-7-----7-5-7---77----------------------------------
A--------------------------5------------------------------
E---------------------------------------------------------

Guitar Solo
G-------------4------------------12-------12--------------
D--------5>7-----7-5-7-----11>12----12-11----11\----------
A---------------------------------------------------------
E-----5-----------------5---------------------------------

G-------------4------------------11----11-12-14-14-12-11--
D--------5>7-----7-5-7-----11>12----12--------------------
A----0----------------------------------------------------
E----------------------5---------------------------------

G-------------4------------------12-------12--------------
D--------5>7-----7-5-7-----11>12----12-11----11\----------
A----0----------------------------------------------------
E----------------------5---------------------------------

G-------------4------------------11----11-12-14-14-12-11--
D--------5>7-----7-5-7-----11>12----12--------------------
A----0----------------------------------------------------
E----------------------5---------------------------------

G---------------------------------------------------------
D---------------04-5-6------------------------------------
A----------3-3------------------3-3-----------------------
E-----5-5---------------5-5--5-------02-3-4---------------

G---------------------------------------------------------
D------------------04-5-6---------------------------------
A-------------3-3------------------3-3--------------------
E-----5-5--5---------------5-5--5-------------------------

G---------------------------------------------------------
D-----5/-10---10-10-10-10-10------------------------------
A---------------------------------------------------------
E---------------------------------------------------------

G---------------------------------------------------------
D---------------------------------04-5-6------------------
A----------3-3---------------3-3--------------------------
E-----5-5-------02-3-4--5-5-------------------------------

G---------------------------------------------------------
D--------------------------------5/-10---10-10-10-10-10--
A----------3-3---------------3-3--------------------------
E-----5-5-------02-3-4--5-5-------------------------------



DJ part 
G-------------------------------------4-------------------
D---------------------------------4>5---5-4---------------
A----------3-3---------------3-3------------3-------------
E-----5-5-------02-3-4--5-5-------------------------------

PreChorus 
G---------------------------------------------------------
D---------------04-5-6------------------------------------
A----------3-3--------------------------------------------
E-----5-5-------------------------------------------------

 Chorus (play 4x)
G---------------------------------------------------------
D---------------------------------------------------------
A---------------3-3--3--3--3-3----------------------------
E-----5-5---5---------------------------------------------

End
G---------5^----------------------------------------------
D-----5-7-----7-5-7---77----------------------------------
A--------------------------5------------------------------
E-------------------------------5-------------------------

Have Fun!!





Comments


Popular Incubus tabs & chords
Agoraphobia Bass Tabs
Anna Molly 5 Bass Tabs
Black Heart Inertia Chords
Pantomime 1 Chords
Adolescents Tabs
I Miss You (Acoustic) Tabs
Look Alive Tabs
Nowhere Fast 1 Tabs
Paper Shoes Tabs
Mexico Ukulele


Song lyrics



↑ Back to top | Tablatures and chords are parodies/interpretations of the original songs. You may use it for private study, scholarship, research or language learning purposes only
© 2014 AZChords.com Contact us | Privacy policy | DMCA | Add/correct tabs | Request tabs | Top 50 tabs