» » »

Have You Ever Tabs (ver.2)

Artists:  A B C D E F G H I J K L M N O P Q R S T U V W X Y Z # 

Have You Ever Tabs (ver.2)

Incubus
Rating:
0/5 (0 votes)

Hard to play? Try these video lessons and learn fast.
                Have you ever
By Incubus

The song is awsome.  Its power chords mostly but who 
cares its incubus.

its dropped D like most songs on morning view
(D a d g b e)

Lift off after strum = *
rest = &
hold for two beats = #

intro (distortion)
 

e|------------------------------|
b|------------------------------|
g|------------------------------|  
d|--5--5--5--5--&--5--5--5--5---|  X2 
a|--5--5--5--5--&--5--5--5--5---|
D|--5--5--5--5--&--5--5--5--5---|
    *  *  *  *     *  *  *  * 

e|------------------------------|
b|------------------------------|
g|--------------------------3---|
d|--5--5--5--5--0--0--3--3--3---|  X4
a|--5--5--5--5--0--0--3--3--1---|
D|--5--5--5--5--0--0--3--3--X---|
    *  *  *  *

Verse (distortion)

e|-----------------------------------------------------|
b|-----------------------------------------------------|
g|-------------------------------------3--3--3--3--3---|
d|--1--1--1--1--5--7--3--5\1--1--1--1--3--3--3--3--3---| X4
a|--1--1--1--1--5--7--3--5\1--1--1--1--1--1--1--1--1---|
D|--1--1--1--1--5--7--3--5\1--1--1--1--X--X--X--X--X---|  
    *  *  *  *           # *  *  *  *
After the forth time of the riff above play in to this

e|------------------------|
b|------------------------|
g|--3--3--3---------------|
d|--3--3--3--5--5--3--3---|
a|--1--1--1--5--5--3--3---|
D|--X--X--X--5--5--3--3---|


chorus (Distortion)

e|---------------------------------------|
b|---------------------------------------|
g|-----------5--5--7--7--3---------------|
d|-----3--3--5--5--7--7--3--5--5--3--3---|  X4
a|-----3--3--3--3--5--5--1--5--5--3--3---|
D|--0--3--3--X--X--X--X--X--5--5--3--3---|
                      # 
                     /|\
                      |
                      |
The forth time of the chorus hold this and slide to this

e|---------------------|
b|---------------------|
g|--3--3--3--3---------|
d|--3--3--3--3--3--3---|
a|--1--1--1--1--3--3---|
D|--X--X--X--X--3--3---|

Thats all i have theres a bridge in the song somewhere and
its a bunch of sound effects it prolly single notes most 
incubus solos are just whole notes with crazy effects
            
Hard to play? Try these video lessons and learn fast. | Correct




comments powered by Disqus
↑ Back to top | Tablatures and chords are parodies/interpretations of the original songs. You may use it for private study, scholarship, research or language learning purposes only