» » »

Glass Tabs (ver.3)

Artists:  A B C D E F G H I J K L M N O P Q R S T U V W X Y Z # 

Glass Tabs (ver.3)

Incubus
Rating:
0/5 (0 votes)

Hard to play? Try these video lessons and learn fast.
                GLASS BY INCUBUS



x = MUTE STRING
^ = BEND BY ABOUT 1/4
 
THE GUITAR HAS SOME WEIRDO EFFECT WHEN PLAYING THE MAIN RIFF, BUT IF YOU HAVE A WAHWAH AND MUCK ABOUT WITH THE PEDAL IT SOUNDS ALRIGHT                       
Intro 
E---------------------------------------------------------------------------
B---------------------------------------------------------------------------
G--^---------^---------^---------^------------------------------------------   X6
D--6-6-0-6-0-6-6-0-6-0-6-6-0-6-0-6--6-x-12----------------------------------
A---------------------------------------------------------------------------
D---------------------------------------------------------------------------


LITTLE RIFF AT ABOUT 00:27
E---------------------------------------------------------------------------
B---------------------------------------------------------------------------
G--------9-9----------------------------------------------------------------
D--7-7-7-----7--------------------------------------------------------------
A---------------------------------------------------------------------------
D---------------------------------------------------------------------------


VERSE IS SAME AS INTRO. AT 00:35 MIKE MUTES THE STRINGS AND HITS THEM JUST BEFORE PLAYING THE RIFF
E-x-xx-x--------------------------------------------------------------------
B-x-xx-x--------------------------------------------------------------------
G-x-xx-x---^---------^---------^---------^----------------------------------   X2
D-x-xx-x---6-6-0-6-0-6-6-0-6-0-6-6-0-6-0-6--6-x-12--------------------------
A-x-xx-x--------------------------------------------------------------------
D-x-xx-x--------------------------------------------------------------------


PRE CHORUS
E--17-17-17-17-17--17--17--17-----------------------------------------------
B--x--x--x--x--x---x---x---x------------------------------------------------
G—-14-14-14-14-14--14--14--14----------X3 ON FOURTH TIME,SLIDE DOWN THE FRETS
D---------------------------------------------------------------------------
A---------------------------------------------------------------------------
D---------------------------------------------------------------------------


CHORUS   -N.B. MUTE THE OPEN STRINGS
E---------------------------------------------------------------------------
B---------------------------------------------------------------------------
G-------------------------------------------------9-/-11--\---14-/16-\------
D--9-9--0--9-9--0--9-9--0--7--10--9-9--0--9-9-----x-/-x---\---x--/x--\------
A--9-9--0--9-9--0--9-9--0--7--10--9-9--0--9-9-----7-/-9---\---12-/14-\------
D--9-9--0--9-9--0--9-9--0--7--10--9-9--0--9-9-------------------------------


BREAKDOWN BIT.BASS AND DRUMS PLAY THEN AT ABOUT 2:15 GUITAR PLAYS THIS

E---------------------------------------------------------------------------
B-------------------11------------------------------------------------------
G--11--11--11--11----------------------------------------------------------
D--9---9---9---9------------------------------------------------------------
A--9---9---9---9------------------------------------------------------------
D--9---9---9---9------------------------------------------------------------


IM NOT SURE ABOUT THE SLIDY BIT AT THE END OF THE CHORUS CHORDS. IF ANY ONE CAN HELP ME ON THAT POST YOUR CHANGES
            
Hard to play? Try these video lessons and learn fast. | Correct




comments powered by Disqus
↑ Back to top | Tablatures and chords are parodies/interpretations of the original songs. You may use it for private study, scholarship, research or language learning purposes only