» » »

Incubus, Drive Tabs (ver.3)

Artists:  A B C D E F G H I J K L M N O P Q R S T U V W X Y Z # 

Drive Tabs (ver.3)

Incubus Tabs
 Rating:
4/5 (4 votes)
Drive lessons Tabs too difficult? Try these video lessons and learn fast
                I am 100% sure that this tab is correct.. heh

I just wanted to post the accurate tab because everybody else 
was mislead by the incorrect riffs! :))




here is the main riff, only 1 guitar

------0-----------------------------------------------------------------------
------0------x------7-----------5-----x-----5---------------------------------
------0---/--x------7---/-------4---/-x-----0--/-/----------------------------
------9------x------5--------5--5-----x-----5---------------------------------
---7--7----------7--7------3----------------3---------------------------------
-0---------------------------------------5--5---------------------------------
                                                                              


here is the pre-chorus 

-------------------------0--0-------------------------------------------------
--------5-----------5----2--2-------------------------------------------------
--------4---/-------4----0--0---repeat that chord-----------------------------
----5---5-----------5----2--2-----over and over-------------------------------
-3------3-------3-3------0--0---------again-----------------------------------

and the chorus is the same as the main riff


have fun, this is my first tab I have ever submitted!

the solo is coming soon... by the end of today!
            
Submit corrections

comments powered by Disqus
↑ Back to top | Incubus Tabs for Drive. Lyrics for acoustic guitar and electric guitar. Tablatures and chords are parodies/interpretations of the original songs. You may use it for private study, scholarship, research or language learning purposes only