» » »

Deep Inside Tabs (ver.1)

Artists:  A B C D E F G H I J K L M N O P Q R S T U V W X Y Z # 

Deep Inside Tabs (ver.1)

Incubus
Rating:
0/5 (0 votes)

Hard to play? Try these video lessons and learn fast.
                Song - Deep inside
Band - Incubus
By - Tim Dobson (Spadey)

INTRO
e------10-10-10----|
b-9-9--9--9--9-----|
g-7-7--------------|
d------------------|
a------------------|
E------------------|

FUNKY BIT
e--7-7-7-----------|-7-7-7-------------|-7-7-7-------------|-7-7-7-------7---7--7--7----|
b--7-7-7-----------|-7-7-7-------------|-7-7-7-------------|-7-7-7------10-10-10-10---|
g--7-7-7-9-7-9-9-|-7-7-7--7-X-7-7-|-7-7-7-9-7-9-7-7-|-7-7-7-X-9-7----------------|
d-------------------|------9--------------|-----------------|--------------------------|
a-------------------|----------------------|-----------------|--------------------------|
E------------------|----------------------|-----------------|--------------------------|

e--7-7-7----------------|-7-7-7--------------|-7-7-7-------------------|------10------------|
b--7-7-7----------------|-7-7-7--------------|-7-7-7-------------------|-------/12-10-10--|
g--7-7-7-9-7-9-9-7-7-|-7-7-7---7-X-7-7-|-7-7-7-9-7-X-9-9-7-7-|-7--7-/9---7---7---|
d-------------------------|-----9--------------|---------------------|-----------------|
a-------------------------|---------------------|---------------------|-----------------|
E-------------------------|--------------------|---------------------|-----------------|
 
VERSE

e-------------------|-16-16-16-16-16-16---|
b-------------------|-15-15-15-15-15-15---|
g*-7--------------*|-16-16-16-16-16-16---|
d*--9-9-9-9-9-9*|---------------------|
a---------------|---------------------|
E---------------|---------------------|

CHORUS
"over and over we ask ourselves....."
 
e----------------------------------------------|
b----------------------------------------------|
g-9-9-9-9-9-6-6-6-6-6--------------------------|
d-9-9-9-9-9-6-6-6-6-6-7-7-7-7-7-8-8-8-8-8------|
a-7-7-7-7-7-4-4-4-4-4-7-7-7-7-7-8-8-8-8-8------|
E---------------------5-5-5-5-5-6-6-6-6-6------|
 
JAZZ CHORDS
"well i've got to find my way back home......"
 
e-----------------------------|--------------------------|
b-7-7-7-7-5-5-5-5-3-3-3-3-4---|-9-9-9-9-7-7-7-7-5-5-5-5--|
g-7-7-6-6-5-5-4-4-3-3-2-2-3---|-9-9-8-8-7-7-6-6-5-5-4-4--|
d-5-5-5-5-3-3-3-3-1-1-1-1-4---|-7-7-7-7-5-5-5-5-3-3-3-3--|
a-----------------------------|--------------------------|
E-----------------------------|--------------------------|
 
FIRST GUITAR SOLO (2:00?)
 
e--9-9-/-10-9--|-9---------------------------|-9--9/--10-9-9------------------------|
b--------------|-----------------------------|--------------------------------------|
g*-6-6-/-7--6-*|-6-----9-9-----9-9-----9-9---|-6--6/---7-6-6-----9-9-----9-9-------|
d*------------*|---7-7-----7-7-----7-7-----7-|---------------7-7-----7-7-----7-7----|
a--------------|-----------------------------|--------------------------------------|
E--------------|-----------------------------|--------------------------------------|

continued              ^                    ^  
e-------------|-7-7-9-9-10-----------5-5-7-7-8--10-------------------7-8-9-10-11----|
b--^----------|--------^-------10-10--------^------8------7-8-9-10-11---------------|
g-9-11-11-9-7-|-4-4-6-6-7--7-7-------2-2-4-4-5-------7-8-9--------------------------|
d-------------|---------------------------------------------------------------------|
a-------------|---------------------------------------------------------------------|
E-------------|---------------------------------------------------------------------|

continued
e-12-12---12-12---12---12---12-12-13-13-15-17-19-20\----|
b------10------10---10---10-----------------------------|
g--------9-------9----9----9---------------------17\----|
d-------------------------------------------------------|
a-------------------------------------------------------|
E-------------------------------------------------------|
 
HEAVY BIT

e--------------------------------------|
b--------------------------------------|
g*-------------------------------------|
d*--4-4-4-4-4-4-4-10--4-4-4-4-4-4-4-8--|
a---2-2-2-2-2-2-2-8---2-2-2-2-2-2-2-6--|
E---2-2-2-2-2-2-2-8---2-2-2-2-2-2-2-6--|
 
SECOND GUITAR SOLO (3:10?)

e-------------------------------------------------|
b----^-----^-^-------------^----------------------|
g-9-9-7---7-9-7-------7---7-9-/-11-9-7------------|
d-------9-------9-7-9---9-------------9-7-9-7-9-9-|
a-------------------------------------------------|
E-------------------------------------------------|

continued
e-9----------9-10-9----------9-10-10-9-9-12-12-9----------9-10/12-10/12-9-10-9-|
b--10------10------10---------------------------10------10---------------------|
g----11--11----------11--11-----------------------11--11-----------------------|
d------12--------------12--12-----------------------12-------------------------|
a------------------------------------------------------------------------------|
E------------------------------------------------------------------------------|

continued                         ^                        ^     
bbbbbbbbbb
e-------------------------------12-9---12-12-9---12-9----12-9-12-12-12-12-12---|
b-12-12-12-10-12-9-10---------10----10---------10-----10-----------------------|
g---------------------7-9-7/11-------------------------------------------------|
d------------------------------------------------------------------------------|
a------------------------------------------------------------------------------|
E------------------------------------------------------------------------------|

continued                          b           b 
e-10-10-12-12-9-9-10-10-------9-----------------------------|
b-----------------------12-12-----9-----9-7-7-7-------------|
g-------------------------------11---------9---9-7-9---7-7--|
d-----------------------------------------------------------|
a-----------------------------------------------------------|
E-----------------------------------------------------------|

continued(3:44)
e-12-10--10-10-14-10-10-10-10-12-12-10---12-10--10-10-10-10-10-12-10-|
b------12-----------------------------12------12---------------------|
g--------------------------------------------------------------------|
d--------------------------------------------------------------------|
a--------------------------------------------------------------------|
E--------------------------------------------------------------------|

still continued
e-10--------------------------------------|
b---12-10-9-10-9-10-9--9------------------|
g--------------------11-7-7-9--7--9-7-9-7-|
d-----------------------------------------|
a-----------------------------------------|
E-----------------------------------------|
 
ENDING
e-------------------11---|
b-------------------10---|
g-9-7---------------11---|
d-----9----7--9-9-7------|
a------7-9---9-----------|
E------------------------|

This is one of the funkyest songs ever!!! Note also it took
me ages to tab, but hear it is, it's not perfect, but it is 
Take care now. Spadey
            
Hard to play? Try these video lessons and learn fast. | Correct




comments powered by Disqus
↑ Back to top | Tablatures and chords are parodies/interpretations of the original songs. You may use it for private study, scholarship, research or language learning purposes only