>
 >
Crowded Elevator 2

Crowded Elevator 2 Guitar Tabs

Incubus - Crowded Elevator 2 chords, tabs, tablatures, lyrics

Guitar lessons | Add/correct | Request | Top 50 tabs Artists:  A B C D E F G H I J K L M N O P Q R S T U V W X Y Z 0-9

Crowded Elevator 2 Guitar Tabs – Incubus

CD, Sheet music, Poster

Do you like Crowded Elevator 2? Share with your friends now
Bass TabsTabsTabs v2Tabs v3Tabs v4

the other two tabs of this song on this
site were a help in me figuring this out.
I used most of the same notes because I
believe that's how it is played but some
I changed from the other two but I would like
to give most of the credit to the other

Standard Tuning


Notation Legend:
x=muffled strings
^()r=bend string(s) one-half step and relsease
//=long glissando


Intro w/ clean tone
E----------------------------------------------------------|
B----------------------------------------------------------|
G----------------------------------------------------------|
D-------------------------------------------------------0--|
A---//-----------------------5-----7^()r------------5-----|
E--//---x----0---------0--0-----0-----------5--4--4--------|
             cres<

                                           distortion on                 play 3 times
                                          *
E--------------------------------------|--------------------------------------------|
B--------------------------------------|--------------------------------------------|
G--------------------------------------|--------------------------------------------|
D-----------------------------------0--|--------------------------------------------|
A--------5-----7^()r------------5-----|--------------------------------7-----7-----|
E--0--0-----0-----------5--4--4--------|--0---0--5--0--4---0--5--0--4------5-----0--|
                                          * first time only

   distortion & wah     wah off
E--0--0--0--0--0--0---|-------------------------------------|
B--5--5--5--5--5--5---|-------------------------------------|
G---------------------|----------7---7-----------7---7------|
D---------------------|--5---5---7---7---5---5---7---7---2--|
A---------------------|--5---5---5---5---5---5---5---5---2--|
E---------------------|--3---3---5---5---3---3---5---5---0--|



Verse w/ clean tone & wah   play 8 times   wah off/distortion on
E---------------------------------------|------------------------------------|
B---------------------------------------|------------------------------------|
G---------------------------------------|------------------------------------|
D------------------------------------0--|---2--2--2-----2--2--2-----2--2--2--|
A--------5-----7^()r-------------5-----|---2--2--2-----2--2--2-----2--2--2--|
E--0--0-----0------------5--4--4--------|---0--0--0-----0--0--0-----0--0--0--|

   clean tone              distortion on
E-----------------------|-------------------------------------|
B-----------------------|-------------------------------------|
G-----------------------|----------7---7-----------7---7------|
D-----------------------|--5---5---7---7---5---5---7---7---2--|
A--------5-----7^()r---|--5---5---5---5---5---5---5---5---2--|
E--0--0-----0-----------|--3---3---5---5---3---3---5---5---0--|


Chorus w/ distortion
                                            wah on       wah off
E-------------------------------------------0-0-0-0-0-0---------------------|
B-------------------------------------------5-5-5-5-5-5---------------------|
G----------------------------7-7-----7-7---------------------7-7-----7-7----|
D------------------------5-5-7-7-5-5-7-7-2---------------5-5-7-7-5-5-7-7-2--|
A-----5-----7^()r-------5-5-5-5-5-5-5-5-2---------------5-5-5-5-5-5-5-5-2--|
E--0-----0-----------5---3-3-5-5-3-3-5-5-0---------------3-3-5-5-3-3-5-5-0--|


Interlude

   clean tone & delay                            play 4 times
E----------3-----------3---------------6--------------6------|
B------3------3-----3-----3-------5-------6-------5------6---|
G------------------------------------------------------------|
D--2-------------2------------5---------------5--------------|
A------------------------------------------------------------|
E------------------------------------------------------------|

   echo  dist.   echo  dist.   echo  dist.    distortion
E------------------------------------------|--0-0-0-0-0-0-0-0-0-0-0-0-0-0-0-0--|
B--5-------------5-------------5-----------|--5-5-5-5-5-5-5-5-5-5-5-5-5-5-5-5--|
G------------------------------------------|-----------------------------------|
D--------2--2----------2--2----------2--2--|-----------------------------------|
A--------2--2----------2--2----------2--2--|-----------------------------------|
E--------0--0----------0--0----------0--0--|-----------------------------------|


Outro w/ distortion
                                 play 3 times   wah on        wah off
E--------------------------------------------|--0-0-0-0-0-0----------------------|
B--------------------------------------------|--5-5-5-5-5-5----------------------|
G--------------------------------------------|--------------------7-7-----7-7----|
D--------------------------------------------|----------------5-5-7-7-5-5-5-5-2--|
A--------------------------------7-----7-----|----------------5-5-5-5-5-5-5-5-2--|
E--0---0--5--0--4---0--5--0--4------5-----0--|----------------3-3-5-5-3-3-5-5-0--|





Comments


Popular Incubus tabs & chords
Blood On The Ground 2 Bass Tabs
Have You Ever Bass Tabs
Zee Deveel Bass Tabs
A Crow Left Of The Murder Tabs
Anti Gravity Love Song Intro Tabs
Calogne Tabs
Certain Shade Of Green 2 Tabs
I Wish You Were Here 2 Tabs
Redefine 4 Tabs
Smoking The Herb Again Secret Song Tabs


Song lyrics



↑ Back to top | Tablatures and chords are parodies/interpretations of the original songs. You may use it for private study, scholarship, research or language learning purposes only
© 2014 AZChords.com Contact us | Privacy policy | DMCA | Add/correct tabs | Request tabs | Top 50 tabs