>
 >
Consequence 2

Consequence 2 Guitar Tabs

Incubus - Consequence 2 chords, tabs, tablatures, lyrics

Guitar lessons | Add/correct | Request | Top 50 tabs Artists:  A B C D E F G H I J K L M N O P Q R S T U V W X Y Z 0-9

Consequence 2 Guitar Tabs – Incubus

CD, Sheet music, Poster

Do you like Consequence 2? Share with your friends now
Bass TabsDrum TabsTabsTabs v2Tabs v3Tabs v4
Zane14's tab of Incubus - Consequence


The intro doesn't sound right at first because of the open D string
but i'm pretty sure this is how it goes

You'll have to listen to the song for the timing and slight changes in picking


     INTRO:

    E|----------------------------------------------------|
    B|-------------0---0--------------0------0------0-----|
    G|----------13----13------------8--------8------7-----|
    D|--------0--------0----------0----------0------0-----|
    A|-----11---------11--------6------------6------5-----|
    E|--12------------12------7--------------7------6-----|

    E|-----------------------------------------------------|
    B|-------------0---0--------------0-------0------0-----|
    G|----------13----13------------8---------8------7-----|
    D|--------0--------0----------0-----------0------0-----|
    A|-----11---------11--------6-----------6------5-------|
    E|--12------------12------7-----------7------6---------|

*****************NOTE: Use at own discrestion****************

I'll let you make the call, but a section of this at the end might
sound a little different on the last two pieces -|| (bad arrow)
					         \/
						      	
    E|-----------------------------------------------------|
    B|-------------0---0--------------0-------0------0-----|
    G|----------13----13------------8---------8------7-----|
    D|--------0--------0----------0-----------0------0-----|
    A|-----11---------11--------6-----------6------5-------|
    E|--12------------12------7-----------7------6---------|


		*It may change to this
		 on a section:		------------------|
					-----0------0-----|
					-----7------4-----|
					-----0------0-----|
					---5------2-------|
					-6------3---------|

*I don't do it but you might want to...just fyi*
***************************************************************

     CHORUS:

    E|-----------------------------------------|
    B|-----------------------------------------|
    G|--9----9----9----9-----------------------|
    D|--9----9----9----9----9----9----9-----8--|
    A|--7----7----7----7----9----9----9-----8--|
    E|--7----7----7----7----7----7----7-----6--|

    E|-----------------------------------------|
    B|-----------------------------------------|
    G|--9----9----9----9-----------------------|
    D|--9----9----9----9----9----9----8-8-5-5--|
    A|--7----7----7----7----9----9----8-8-5-5--|
    E|--7----7----7----7----7----7----6-6-3-3--|

     This part is played after the chorus a few times

    E|-------------------------|
    B|-------------------------|
    G|--9----9-9-----7---------|
    D|--9----9-9-9---7----7-6--|
    A|--7----7-7-9---5----7-6--|
    E|--7----7-7-7---5----5-4--|

     INTERLUDE:

    E|-------------------------------------------------|
    B|-------------------------------------------------|
    G|-------------------------------------------------|
    D|--9-9---9-9---9-9---9-9---8-8---8-8---8-8---8-8--|
    A|--9-9---9-9---9-9---9-9---8-8---8-8---8-8---8-8--|
    E|--7-7---7-7---7-7---7-7---6-6---6-6---6-6---6-6--|

     SOLO:

    E|------------------|
    B|------------------|
    G|--6----6-6--------|
    D|--6----6-6-6---7--|
    A|--4----4-4-6---7--|
    E|--4----4-4-4---5--|

That's it...not in exact order or time...but good enough...have fun





Comments


Popular Incubus tabs & chords
Anti-Gravity Bass Tabs
Aqueous Transmission 2 Bass Tabs
Priceless 3 Bass Tabs
Punch Drunk Chords
Aqueous Transmission 1 Tabs
Golden 1 Tabs
Pardon Me 5 Tabs
Stellar 5 Tabs
Warning 8 Tabs
Wish You Were Here Intro Tabs


Song lyrics



↑ Back to top | Tablatures and chords are parodies/interpretations of the original songs. You may use it for private study, scholarship, research or language learning purposes only
© 2014 AZChords.com Contact us | Privacy policy | DMCA | Add/correct tabs | Request tabs | Top 50 tabs