» » »

Clean Tabs (ver.4)

Artists:  A B C D E F G H I J K L M N O P Q R S T U V W X Y Z # 

Clean Tabs (ver.4)

Incubus
Rating:
0/5 (0 votes)

Hard to play? Try these video lessons and learn fast.
                (Intro)
Intro

e:-----------------|
B:-----------------|
G:-----------------|
D:-----------------| x4
A:--0h2-2-0-0h2-2--|
E:-----------------|

e:--------------7-7-7---------|
B:--------------7-7-7---------|
G:----------------------------|
D:--7/9---7/9-----------------|
A:--7/9---7/9-----------------|
E:--5/7---5/7----------etc.---|
            
Hard to play? Try these video lessons and learn fast. | Correct




comments powered by Disqus
↑ Back to top | Tablatures and chords are parodies/interpretations of the original songs. You may use it for private study, scholarship, research or language learning purposes only