» » »

Incubus, Clean Tabs (ver.2)

Artists:  A B C D E F G H I J K L M N O P Q R S T U V W X Y Z # 

Clean Tabs (ver.2)

Incubus Tabs
 Rating:
4/5 (4 votes)
Clean lessons Tabs too difficult? Try these video lessons and learn fast
                "Clean" by Incubus


Drop D

I play this in Drop D because the chords are easier to move.  I've never seen them play it live but I bet they play it in Drop D.  If Drop D is not your flavor, then transpose it to Standard tuning.

Guitar rests for a while.  Guitar 1 comes in at 0:33.  

{Distortion}
                               |Harmonic|
e|----------------------------------------------
B|----------------------------------------------
G|-----------------------------(9-9-9)----------	play 8x
D|---7h9--x--7h9---x--x-x--x--------------------
A|---7h9--x--7h9---x--x-x--x--------------------
D|---7h9--x--7h9---x--x-x--x--------------------

1:04

e|-------------------
B|-------------------
G|-------------------		play 3x
D|---7h9--7h9--------
A|---7h9--7h9--------
D|---7h9--7h9---16b--

1:15

e|---------------------
B|---------------------
G|---------------------		play 2x
D|---7h9--9---7h9--9---
A|---7h9--9---7h9--9---
D|---7h9--9---7h9--9---

{Distortion OFF / Tremolo ON}

1:19 - Verse

e|-----------------------------------
B|-----------------------------------
G|---6---------6---------------------		Repeat 1x
D|---7-----------7-------------------
A|---5-------------5-----------------
D|-----------------------------------

   "Today"    "fine, fine, fine"

1:34

e|---7-----------------------------7---------------
B|--10-------------------------------10------------
G|---8----------------------------------8----------	Repeat 1x
D|-------------------------------------------------
A|-------------------------------------------------
D|-------------------------------------------------

      "Something I read..."         "getting you down"

{Distortion ON / Tremolo OFF}

1:48 - Chorus

e|-------------------------------------------------
B|-------------------------------------------------
G|-------------------------------------------------
D|--7h9--9----9--12----7h9--9---9--5----7h9--9--9---x-x-x---7h9--9--9---9--12--7--
A|--7h9--9----9--12----7h9--9---9--5----7h9--9--9---x-x-x---7h9--9--9---9--12--7--Repeat 1x
D|--7h9--9----9--12----7h9--9---9--5----7h9--9--9---x-x-x---7h9--9--9---9--12--7--


Repeat the Verse and chorus part.  

3:01 - Bridge

e|---------------------
B|---------------------
G|---------------------		Or something
D|--10--6--13--10--6--3
A|--10--6--13--10--6--3
D|--10--6--13--10--6--3

Then just go through the chorus part again and you're done.  

~~~~~~~~~~
Matt Selph
            
Submit corrections

comments powered by Disqus
↑ Back to top | Incubus Tabs for Clean. Lyrics for acoustic guitar and electric guitar. Tablatures and chords are parodies/interpretations of the original songs. You may use it for private study, scholarship, research or language learning purposes only