» » »

Incubus, Blood On The Ground Tabs (ver.2)

Artists:  A B C D E F G H I J K L M N O P Q R S T U V W X Y Z # 

Blood On The Ground Tabs (ver.2)

Incubus Tabs
Rating:
0/5 (0 votes)
Hard to play? Try these video lessons and learn fast.
                Tuning: Drop D
Effects: Distortion, Phaser, Clean Channel
--------------------------------------------
Notes: This is one of the best songs on the album, this tab is almost 100% complete
the bridge needs alittle work, I'll fix it A.S.A.P. Also on the Part in the intro that
says (A1) use lite phaser and lite distortion then just lite distortion in the rest of
the intro.



Intro: Right as the song begins you do A1 and let it ring for like 5 secs. Then after
that you proceed with A2 straight into A3. Then while playing A3 when the time of the
song is about 00:17 A4 comes in which is a second guitar. 

|-----0------|-----|-x-x---x-----x-x---x-------------|-------------------------|
|----7-------|-x-x-|-7-7-x-7-x-x-7-7-x-7-------------|---7b--------------------|
|---5--------|-x-x-|-5-5-x-5-x-x-5-5-x-5-------------|---5b--------------------|
|--7---------|-x-x-|-7-7-x-7-x-x-7-7-x-7--9-9\-3-3-0-|---7b--------------------|
|-0----------|-x-x-|-0-0-x-0-x-x-0-0-x-0--9-9\-3-3-0-|-------------------------|
|------------|-x-x-|-----x---x-x-----x----9-9\-3-3-0-|-------------------------|
 A1           A2    A3                                A4 (Second Guitar)                             
 (X1)         (X1)  (X8)                              (X1 on the X4 of A3)


Chorus: This part contains heavy distortion.

|--------------------------|------------------------|
|-7--7--x-x--7-7-----------|------------------------|
|-5--5--x-x--5-5-----------|------------------------|
|-7--7--x-x--7-7--9-9\-3-3-|5-5-5-5-5-3-3-3-3-3-3-3-|
|-0--0--0-0--0-0--9-9\-3-3-|5-5-5-5-5-3-3-3-3-3-3-3-|
|-0--0--0-0--0-0--9-9\-3-3-|5-5-5-5-5-3-3-3-3-3-3-3-|
 B1                         B2
 (X3)                       (X1)

Verse: This part is in clean tone.                                                                              

|-----------------------------------|
|-----------------------------------|
|-----------------------------------|
|-----0--------7--------5-------5---|
|---0---0----7---7----3---3---5---5-|
|-0--------7--------5-------3-------|


PreChorus: This part contains heavy distortion

|------------------------|
|------------------------|
|------------------------|
|-9-9-9/5-5-x-3--3-3-x-3-|
|-9-9-9/5-5-x-3--3-3-x-3-|
|-9-9-9/5-5-x-3--3-3-x-3-|
                                                                              

PreBridge: This part contains heavy distortion

|------------------------------------------------------------------------------
|------------------------------------------------------------------------------
|------------------------------------------------------------------------------
|-0-0--x-x--0-0--9-9\-3-3-0----------------------------------------------------
|-0-0--x-x--0-0--9-9\-3-3-0----------------------------------------------------
|-0-0--x-x--0-0--9-9\-3-3-0----------------------------------------------------


Bridge:

|-----------------------------------------0----------|
|--------------------------------7-7b7---7-----------|
|----------0------------------0--5-5b5--5-----0-0----|
|------3--------3-0-----3---3----------0------0-0----|
|----5---5------5---0-2---2--------------------------|
|--5----------5--------------------------------------|
 (Phaser/ Lite Distortion)

Song Order:
Intro:      X1
Chorus:     X2
Verse:      X10
PreChorus:  X1
Chorus:     X2
Verse:      X10
PreChorus:  X2
Chorus:     X2
PostChorus: X4
Bridge:     X4
Chorus:     X2
PostChorus: X4
End with:

|-0-------|
|-7-------|
|-5-------|
|-7-------|
|-0-------|
|---------|

X10
            

comments powered by Disqus
↑ Back to top | Incubus Tabs for Blood On The Ground. Lyrics for acoustic guitar and electric guitar. Tablatures and chords are parodies/interpretations of the original songs. You may use it for private study, scholarship, research or language learning purposes only