» » »

Incubus, Beware Criminal Bass tabs (ver.1)

Artists:  A B C D E F G H I J K L M N O P Q R S T U V W X Y Z # 

Beware Criminal Bass tabs (ver.1)

Incubus Tabs
 Rating:
4/5 (4 votes)
Beware Criminal lessons Tabs too difficult? Try these video lessons and learn fast
                beware!criminal
THIS IS ONLY BASIC! MAKE A REAL TAB OFF THIS!
inclazybus

verse

------------------------------------------------
-----6------4-4-4----6---4-4-4------------------
---4--------------4------------4----------------
---------0--------------0--------5---------0----

chorus 'you came...'

-------------------------------------------
--------------------------------------------
--------------------------------------------
-------3------------------------3-----------
--0--------------------------0--------------
----------2-0-2-0-222-0---1-------2-1-0-----

'yeh I'm down'
-----------------------------------------------
-----1-----2------222--------------------------
--0----4-0---5-4-------------------------------
---------------2------------------------------------------------------
            
Submit corrections

comments powered by Disqus
↑ Back to top | Incubus Bass for Beware Criminal. Lyrics for acoustic guitar and electric guitar. Tablatures and chords are parodies/interpretations of the original songs. You may use it for private study, scholarship, research or language learning purposes only