>
 >
Battlestar Scralatchtica 2

Battlestar Scralatchtica 2 Guitar Tabs

Incubus - Battlestar Scralatchtica 2 chords, tabs, tablatures, lyrics

Guitar lessons | Add/correct | Request | Top 50 tabs Artists:  A B C D E F G H I J K L M N O P Q R S T U V W X Y Z 0-9

Battlestar Scralatchtica 2 Guitar Tabs – Incubus

CD, Sheet music, Poster

Do you like Battlestar Scralatchtica 2? Share with your friends now
Bass TabsBass Tabs v2TabsTabs v2Tabs v3
standard tuning: EADGBE
Incubus :  Battlestar scralatchtica

lots of weirdness in this song, hope this helps u.       
       
       x   = mute (wah low)
       X   = mute (wah high)
       b   = bend up
       b  = bend up half-fret
       r   = release bend
       h   = hammer on
       p   = pull off
      [PM] = palm mute
       tr  = tremelo
       *   = let ring



INTRO 
 E|-xxxXX-|-xxxXXX-|
 B|-xxxXX-|-xxxXXX-|
 G|-xxxXX-|-xxxXXX-|
 D|-------|--------|
 A|-------|--------|
 E|-------|--------|



VERSE 1 
 
 E|-5-------5-----4-5----8--5-|
 B|-6-------6-----5-6----9--6-|
 G|---------------------------|
 D|---------------------------|
 A|---------------------------|
 E|---------------------------|

 E|-5-------5-------5----------------|
 B|-6---5b6-6-------6-------3--1-3p1-|
 G|-------------3h5-----5p3----------|
 D|----------------------------------|
 A|----------------------------------|
 E|----------------------------------|
 
 E|-5--------5-------|
 B|-6----5p3-6-----5-|
 G|----------------3-|
 D|------------------|
 A|------------------|
 E|------------------|



1st bridge


 E|----------------------------------5*--X-|
 B|---------------------------------5*---X-|
 G|---------------------765--------4*----X-|
 D|-----0-2--3-5--6-7------7-6-5--0*-----X-|
 A|--------------------------------------X-|
 E|-3------------------------------------X-|




VERSE 2

 E|-----------|--------------|
 B|-(5b)6r5b6-|--------------|
 G|-----------|--------------|
 D|-----------|-------10-8b-|
 A|-----------|---10---------|
 E|-----------|-10---8-------|





2nd bridge

   
 E|-6------------------------------------------10*-|
 B|----8-------------8888----------------------9*--|
 G|---------7-8-----------9------------------------|
 D|-------------------------10---9--7-9--7---------|
 A|-------------7--7-----------------------9-7-----|
 E|------------------------------------------------|



VERSE 3

   
 E|-XXxxXXxx-|-----|-XXxxXXxx-|-6--6-|-XXxxXXxx-|-----------|-----|
 B|-XXxxXXxx-|-----|-XXxxXXxx-|------|-XXxxXXxx-|-5-5-------|-3p1-|
 G|-XXxxXXxx-|-5p3-|-XXxxXXxx-|------|-XXxxXXxx-|-----3---5-|-----|
 D|----------|-----|----------|------|----------|-----------|-----|
 A|----------|-----|----------|------|----------|-----------|-----|
 E|----------|-----|----------|------|----------|-----------|-----|



3rd bridge

 E|-----------------------------------------------------------------|
 B|-------------------------------------------------------------1b2-|
 G|-7----7--------------3-------------------------------------1-----|
 D|----6----------------3--------------------------------1-3--------|
 A|--------7-6--5-4-3-2-1-----------3--1---3--------1-3-------------|
 E|-------------------------3p2p1p0------------1--0-----------------|



SOLO/ENDING
 
 E|-6~--X--8p6-6--XX--15--XX-12-12-12-12--12-18-18p15-15XX18-18p15--17-18p17-XX-|
 B|-----X---------XX--15--XX-------11-11--11------------XX-------------------XX-|
 G|-----X---------XX------XX----------------------------XX-------------------XX-|
 D|-----------------------------------------------------------------------------|
 A|-----------------------------------------------------------------------------|
 E|-----------------------------------------------------------------------------|
 
 E|------18---XX--18---XX--18--XXxxXXxxXXx-18--XX--18--XX--18--------------|
 B|-17b18-----XX-------XX------XXxxXXxxXXx-----XX------XX-----18--18-18-18-|
 G|-----------XX-------XX------XXxxXXxxXXx-----XX------XX-----19--19-19-19-|
 D|------------------------------------------------------------------------|
 A|------------------------------------------------------------------------|
 E|------------------------------------------------------------------------|
 
 E|-5-------5-XX-4-5-------X3--3--XX-------5-------X7--7--5---X5-XX5-5tr-|
 B|-6-------6-XX-5-6-------X------XX5-3-5--6-------X9--9--6---X6-XX6-6tr-|
 G|-----------XX-----------X------XX---------------X----------X--XX------|
 D|----------------------------------------------------------------------|
 A|----------------------------------------------------------------------|
 E|----------------------------------------------------------------------|

 E|-------------XXxxXXxx---------------xx------------------xx-XXx3-3-3333-|
 B|-------------XXxxXXxx------------3--xx------------------xx-XXx3-3-3333-|
 G|-3h5-3-5b6-3-XXxxXXxx3h5-3-5b6-3---3xx3---3h5-3-5b6-3--3xx-XXx---------|
 D|-----------------------------------------------------------------------|
 A|-----------------------------------------------------------------------|
 E|-----------------------------------------------------------------------|
 
 E|------------6-6--------xx------------------|
 B|-5b6r5--------------5b6xx------------------|
 G|------3--3-----3-3-----xx3--5b6-5----------|
 D|----------------------------------3-5-3-5*-|
 A|-------------------------------------------|
 E|-------------------------------------------|
 
 E|-0*-|
 B|-0*-|   pointless bit
 G|-0*-|
 D|----|
 A|----|
 E|----|





Comments


Popular Incubus tabs & chords
Clean 2 Bass Tabs
Familiar Bass Tabs
Magic Medicine 3 Bass Tabs
Priceless 3 Bass Tabs
Certain Shade Of Green Tabs
Look Alive Tabs
Made For Tv Movie 2 Tabs
Second Movement Of The Odyssey Tabs
Trouble In 421 1 Tabs
Wish You Were Here 4 Tabs


Song lyrics



↑ Back to top | Tablatures and chords are parodies/interpretations of the original songs. You may use it for private study, scholarship, research or language learning purposes only
© 2014 AZChords.com Contact us | Privacy policy | DMCA | Add/correct tabs | Request tabs | Top 50 tabs