» » »

Aqueous Transmission Tabs (ver.3)

Artists:  A B C D E F G H I J K L M N O P Q R S T U V W X Y Z # 

Aqueous Transmission Tabs (ver.3)

Incubus
Rating:
0/5 (0 votes)

Hard to play? Try these video lessons and learn fast.
                Incubus- Aqueous Transmission
Morning View

very easy song this. you don't need to 
tune all your strings to open D tuning.
play close to the bridge to get that
sitar sound. the vibratos are very strong
~ = vibrato

e----------------------------------------------------------------------
a-------------------------------------------0----------------0---------
G-----------14--11~---------4~--2~-------4-----4----------4-----4------
D--------0-----------------0----------2-----------2--------------------
A-----0-------------------0----------------------------2-----------2---
D--0---------------------0---------------------------------------------

that's it


and for you lazy people the song in just plain drop d
e----------------------------------------------------------------------
b----------------------------------------------------------------------
G-----------14--11~---------4~--2~-------4--2--4----------4--2--4------
D--------0-----------------0----------2-----------2--------------------
A-----0-------------------0----------------------------2-----------2---
D--0---------------------0---------------------------------------------
            
Hard to play? Try these video lessons and learn fast. | Correct




comments powered by Disqus
↑ Back to top | Tablatures and chords are parodies/interpretations of the original songs. You may use it for private study, scholarship, research or language learning purposes only