» » »

Incubus, Admiration Tabs (ver.1)

Artists:  A B C D E F G H I J K L M N O P Q R S T U V W X Y Z # 

Admiration Tabs (ver.1)

Incubus Tabs
 Rating:
3.6/5 (7 votes)
Admiration lessons Tabs too difficult? Try these video lessons and learn fast
                

Intro

e--------------------------------------------------|
B--------------------------------------------------|
G--------------------------------------------------|
D--------------------------------------------------|
A--0--0--0--0--0--0--0--0--2--2--2--0--0--0--0--0--|
E--3--3--3--5--5--5--5--0--0--0--0--1--1--1--1--1--| x2


Verse (the same as intro)

e--------------------------------------------------|
B--------------------------------------------------|
G--------------------------------------------------|
D--------------------------------------------------|
A--0--0--0--0--0--0--0--0--2--2--2--0--0--0--0--0--|
E--3--3--3--5--5--5--5--0--0--0--0--1--1--1--1--1--| x2


e-----3-------5-----0------5-5                      -------------|
B-----3-------5-----0------5-5                      -------------|
G-----4-------6-----1------5-5                            -------|
D-----5-------7-----2----3----                      --------3----|
A---5-------7-----2------3----                      --------3----|
E-3-------5-----0------1------ x6 BUT 6th time ends with: --1----|

Chorus

e--------------------------------------------------|
B--------------------------------------------------|
G--------------------------------------------------|
D--5--5--5--7--7--7--7--0--2--2--2--3--3--3--3--3--|
A--5--5--5--7--7--7--7--0--2--2--2--3--3--3--3--3--|
E--3--3--3--5--5--5--5--0--0--0--0--1--1--1--1--1--| x4 plus x1

Verse

e--------------------------------------------------|
B--------------------------------------------------|
G--------------------------------------------------|
D--------------------------------------------------|
A--0--0--0--0--0--0--0--0--2--2--2--0--0--0--0--0--|
E--3--3--3--5--5--5--5--0--0--0--0--1--1--1--1--1--| x8

Chorus

e--------------------------------------------------|
B--------------------------------------------------|
G--------------------------------------------------|
D--5--5--5--7--7--7--7--0--2--2--2--3--3--3--3--3--|
A--5--5--5--7--7--7--7--0--2--2--2--3--3--3--3--3--|
E--3--3--3--5--5--5--5--0--0--0--0--1--1--1--1--1--| x4

Bridge

e--------------------------------------------------|
B----------------1---------------------------------|
G----9---4---6---2---------------------------------|
D----10--5---7---3---------------------------------|
A----10--5---7---3---------------------------------|
E----8---3---5---0---------------------------------|

^ Listen to the song to figure out the strumming of the bridge

Then it goes:

e--------------------------------------------------|
B--------------------------------------------------|
G--------------------------------------------------|
D--------------------------------------------------|
A--0--0--0--0--0--0--0--0--2--2--2--0--0--0--0--0--|
E--3--3--3--5--5--5--5--0--0--0--0--1--1--1--1--1--| x2


e-----3-------5-----0------5-5                  -----------------|
B-----3-------5-----0------5-5                  -----------------|
G-----4-------6-----1------5-5                  -----------------|
D-----5-------7-----2----3----                  ------------3----|
A---5-------7-----2------3----                  ------------3----|
E-3-------5-----0------1------ x2 BUT 2nd time ends with: --1----|

Chorus/Outro


e--------------------------------------------------|
B--------------------------------------------------|
G--------------------------------------------------|
D--5--5--5--7--7--7--7--0--2--2--2--3--3--3--3--3--|
A--5--5--5--7--7--7--7--0--2--2--2--3--3--3--3--3--|
E--3--3--3--5--5--5--5--0--0--0--0--1--1--1--1--1--| x8

Ends on:

e-----
B--0--
G--2--
D--3--
A--3--
E--1-- x1 and hold it onto fading.

That's basically the entire song
I Hope You'll enjoy it :)
            
Submit corrections

comments powered by Disqus
↑ Back to top | Incubus Tabs for Admiration. Lyrics for acoustic guitar and electric guitar. Tablatures and chords are parodies/interpretations of the original songs. You may use it for private study, scholarship, research or language learning purposes only