>
 >
A Crow Left Of The Murder

A Crow Left Of The Murder Bass Tabs

Incubus - A Crow Left Of The Murder chords, tabs, tablatures, lyrics

Guitar lessons | Add/correct | Request | Top 50 tabs Artists:  A B C D E F G H I J K L M N O P Q R S T U V W X Y Z 0-9

A Crow Left Of The Murder Bass Tabs – Incubus

CD, Sheet music, Poster

Do you like A Crow Left Of The Murder? Share with your friends now
Bass TabsTabsTabs v2Tabs v3Tabs v4
+------------------------------------------------------------+
+ BAND    : Incubus                                          +
+ ALBUM   : A Crow Left Of The Murder                        +
+ SONG    : A Crow Left Of The Murder                        +
+------------------------------------------------------------+
+ STANDARD SYMBOLS                                           +
+     h - hammer on                                          +
+     p - pull off                                           +
+     b - bend string up                                     +
+     r - release bend                                       +
+     / - slide up                                           +
+     \ - slide down                                         +
+     v - vibrato (sometimes written as ~)                   +
+     t - tap (with strumming hand)                          +
+     x - muted, struck string                               +
+------------------------------------------------------------+
+ NOTES                                                      +
+ 18/12/2004 - Re-Tabbed the chorus, bridge and the last     +
+              verse after realisin it sounds nothin like    +
+              the CD, this should be as close as u can get  +
+              to playin the song properly(95.1%)lol, enjoy! +
+------------------------------------------------------------+

INTRO (start at 0:10)
G|------------------------------------------------------------
D|---------------------------6-9-6---6-------------6-9-6---6--
A|-----------------------7-9-------9-----------7-9-------9----
E|--0-2-0-222-0-000-000----------------000-000----------------

G|----------------8-------------------------------------------|
D|--------------6---6---6-------------------------------------|
A|----------7-9-------9---------------------------------------|
E|--000-000---------------000-000-----------------------------|

VERSE 1 (x2)
G|------------------------------------------------------------
D|---------------------------6-9-6---6-------------6-9-6---6--
A|-----------------------7-9-------9-----------7-9-------9----
E|--0-2-0-222-0-000-000----------------000-000----------------
                                     Second Time Only
G|----------------8----------------|--------------------------|
D|--------------6---6---6----------|--------------------------|
A|----------7-9-------9------------|--------------------------|
E|--000-000---------------000-000--|--0-2-0-222---------------|

CHORUS 1 (x2)
G|-----------------------------12-12-121212-11-11-------------|
D|---------------12-1212-9-999--------------------12--9-999---|
A|--10-10-101010----------------------------------------------|
E|------------------------------------------------------------|

G|-----------------------------12-12-121212-11-11--14-16-161616-|
D|---------------12-1212-9-999----------------------------------|
A|--10-10-101010------------------------------------------------|
E|--------------------------------------------------------------|

--->play VERSE 1(x2)
--->play CHORUS 1(x4)

BRIDGE
G|------------------------------------------------------------
D|------------------------------------------------------------
A|-/77777777777777-9\-55555555-5-7-----5-7--------------------
E|---------------------------------7-5-----5-7-3333333--------

G|------------------------------------------------------------
D|------------------------------------------------------------
A|---------5-7-5-9-10/12-12-8-10-8-10-88----------------------
E|-0-3-5-7----------------------------------------------------

G|------------------------------------------------------------
D|-------------------------------7---------5-7-10/12----------
A|--777777777777-9-7\-55555555-5---7-5-7-9--------------------
E|------------------------------------------------------------

G|------------------------------------------------------------
D|-----12-----12-12---1212~-----------------------------------
A|-------10-10-----10-------8-10-88-10-88 1010----------------
E|------------------------------------------------------------


G|------------------------------------------------------------\
D|------------------------------------5555555555555555-------- \
A|--7777777777777777-5555555555555555-------------------------  \
E|------------------------------------------------------------   \
                                                                  } x2
G|------------------------------------------------------------   /
D|--3333333333333333------------------------------------------  /
A|------------------------------------------------------------ /
E|------------------------------------------------------------/

G|------------------------------------------------------------
D|------------------------------------------------------------
A|--------------------------------------12-10-9---------------
E|--17\-10-12-x00-10-12-x-000-10-12-x00---------10-8\---------

G|------------------------------------------------------------
D|-------------------------------7-9---7-9------9-------------
A|----------------------7---77-8------8-----8-8---------------
E|-------3-3-33-/8-10-8---------------------------------------

G|------------------------------------------------------------
D|------------------------------------------------------------
A|-----------------------------------12-10-9------------------
E|---10-12-x00-10-12-x-000-10-12-x00---------10-8\------------

G|------------------------------------------------------------
D|------------------------------------------------------------
A|------------------7-787-8888888888888888--------------------
E|--3-3-333-/8-10-8-------------------------------------------

VERSE 2
G|----------------------------------------------------------------
D|-----------------------------6-9-6---6---------------6-9-6---6--
A|-------------------------7-9-------9-------------7-9-------9----
E|--0-2-0-222-0-000-01012\---------------000-01012\---------------

G|-------------------8----------------------------------------
D|-----------------6---6---6----------------------------------
A|-------------7-9-------9------------------------------------
E|--000-01012\---------------000-01012\-----------------------


G|------------------------------------------------------------\
D|------------------------------------------------------------ \
A|------------------------------------------------------------ / x5
E|--0-2-0-222-0-000-01012\------------------------------------/


                          Play after 14th time
G|-----------------------|---------------------|\
D|-----------------------|---------------------| \
A|-----------------------|---------------------| / x14
E|--10-12-0--------------|--0-2-0-222-0~-------|/





Comments


Popular Incubus tabs & chords
Sick Sad Little World 2 Bass Tabs
Wish You Were Here Chords
The Warmth 2 Drum Tabs
Aqueous Transmission 1 Tabs
Circles 3 Tabs
Defiance 2 Tabs
Summer Romance 6 Tabs
Warning 1 Tabs
Rebel Girls Ukulele
Southern Girl Ukulele


Song lyrics



↑ Back to top | Tablatures and chords are parodies/interpretations of the original songs. You may use it for private study, scholarship, research or language learning purposes only
© 2014 AZChords.com Contact us | Privacy policy | DMCA | Add/correct tabs | Request tabs | Top 50 tabs