» » »

A Crow Left Of The Murder Tabs (ver.3)

Artists:  A B C D E F G H I J K L M N O P Q R S T U V W X Y Z # 

A Crow Left Of The Murder Tabs (ver.3)

Incubus
Rating:
4/5 (32 votes)

Hard to play? Try these video lessons and learn fast.
                
i think its right for the most part
mess around with it and post comments

------------------------------------------------------------------------------
------------------------------------------------------------------------------
--------------4---------------------------------------------------------------
-----4---6--------6----4----6-----------------------------------x2------------
-6-----------------------------------------2----------------------------------
--------------------------------0---2---4-----4---2---0-----------------------
                                                                              

------------------------------------------------------------------------------
-------------4----------------------------------------------------------------
------------------------------------------------------------------------------
-----4---6-------6---4---6------------------2---------------------------------
-6----------------------------------------2-----------------------------------
-------------------------------0---2---4------4--2--0-------------------------
                                                                              

------------------------------------------------------------------------------
------------------------------------------------------------------------------
------------------------------------------------------------------------------
--4----2----------------------------------------------------------------------
--4----2----------------------------------------------------------------------
--2----0----------------------------------------------------------------------
  chorus     0:44    1:17                                                     

------------------------------------------------------------------------------
--3-------3-------------------------------------------------------------------
----------2------4------------------------------------------------------------
-----------------4------------------------------------------------------------
--2--------------2------------------------------------------------------------
--3---------------------------------------------------------------------------
  bridge 1:40                                                                 

------------------------------------------------------------------------------
-------3------3---------------------------------------------------------------
-1-----2-------------------2----4----5--4--2----------------------------------
-2-------------------------3----5----6--5--3----------------------------------
-2------------2---------------------------------------------------------------
--------------3------------1----3----4--3--1----------------------------------
                                                                              

------------------------------------------------------------------------------
-----------------------------------------------------------4-----------4------
-----------4------------------------------------------------------------------
----4--6--------6--4--6------4--44----2-------------4---6-----4----6----------
--6--------------------------4--44----2---------------------------------------
-----------------------------2--22----0---------------------------------------
            
Hard to play? Try these video lessons and learn fast. | Correct




comments powered by Disqus
↑ Back to top | Tablatures and chords are parodies/interpretations of the original songs. You may use it for private study, scholarship, research or language learning purposes only