» » »

Incubus, 11 A.M Tabs (ver.3)

Artists:  A B C D E F G H I J K L M N O P Q R S T U V W X Y Z # 

11 A.M Tabs (ver.3)

Incubus Tabs
 Rating:
4/5 (4 votes)
11 A.M lessons Tabs too difficult? Try these video lessons and learn fast
1
                Incubus,11am.
  
Intro(0:00)

E |----3-3-3-------------------
B |----0-0-0-------------------
G |----0-0-0------------------- X3
D |-------------2----2p0-------
A |-----------2---2------------
E |-0---------------------h3---

E |----3-3-3----------------------
B |----0-0-0----------------------
G |----0-0-0----------------------
D |---------------4---------------
A |-------------5------5-5----5---
E |-0---------3------3------3-----

Intro(0:12) and verse

E |----3-3-3-------------------
B |----0-0-0-------------------
G |----0-0-0------------------- X3
D |-------------2----2p0-------
A |-----------2---2------------
E |-0---------------------h3---

E |----3-3-3--------------------------
B |----0-0-0--------------------------
G |----0-0-0---2-2---5----------------
D |------------2-2---5----------------
A |------------0-0---3--3h5p0h3p0-----
E |-0---------------------------------

Pre-Chorus(1:02)(2:04)

E |------------------------------------------------------
B |------------------------------------------------------
G |-----------------2-----------------------5------------ (X2 at 2:04)
D |-------2---2---2---2-----------5---5---5---5----------
A |-0---0---0---0-------0---3---3---3---3-------3--------
E |------------------------------------------------------

E |----------------------------
B |----------------------------
G |--2---2-2-2-----------------
D |--2---2-2-2----5------3-----
A |--0---0-0-0----5------3-----
E |---------------3------1-----

Chorus(1:14)(2:22)(3:18)

E |-----------------------------------------
B |-----------------------------------2-3-3-
G |-------------4-4-4-4-------------4-3-3-3-
D |---2-2-2-2---2-2-2-2---2-2-2-2---2-0-0-0-
A |---2-2-2-2-------------2-2-2-2-----------
E |---0-0-0-0---0-0-0-0---0-0-0-0---0-------

E |--------------------------------------------
B |--------------------------------------------
G |-------------4-4-4-4---2-2-2-2--5-----------
D |---2-2-2-2---2-2-2-2---2-2-2-2--5-----------
A |---2-2-2-2-------------0-0-0-0--3-3h5p0h3p0-
E |---0-0-0-0---0-0-0-0------------------------

Verse 3 (2:47)

E |--0----------
B |--0-----0----
G |--0-----2---- X8
D |--0-----2----
A |--2-----0----
E |--3----------

E |--0---
B |--0---
G |--1---
D |--2---
A |--2---
E |--0---

Ending Chord (3:55)

E: 022100


Im fairly sure this all correct. If you find any mistakes please
Enjoy! 
            
Submit corrections

comments powered by Disqus
↑ Back to top | Incubus Tabs for 11 A.M. Lyrics for acoustic guitar and electric guitar. 1 Tablatures and chords are parodies/interpretations of the original songs. You may use it for private study, scholarship, research or language learning purposes only