» » »

Incubus, 11 A.M Tabs (ver.2)

Artists:  A B C D E F G H I J K L M N O P Q R S T U V W X Y Z # 

11 A.M Tabs (ver.2)

Incubus Tabs
 Rating:
4/5 (4 votes)
11 A.M lessons Tabs too difficult? Try these video lessons and learn fast
                Band: Incubus

Intro
   X3 
e|-------------------------------|--------------------------------------|
B|---------5-5-5-----------------|---------5----------------------------|
G|---------4-4-4-----------------|---------4p0--------------------------|
D|-2--X-X--2-2-2---------2p0-----|--2-X-X--2--------0-4-----0---2p0---0-|
A|-2--X-X--2-2-2-----3---------3-|--2-X-X--2---0--0-----5\3---------3---|
E|-0--X-X--0-0-0---3---3-----3---|--0-X-X--0------5---------------------|


Intro & Chorus

e|-----------------------------|------------------------------------|
B|---------5-5-5---------------|---------5--------------------------|
G|---------4-4-4---0---0-0-0-0-|---------4-----------0--------------|
D|-2--X-X--2-2-2---2---2-2-2-2-|--2-X-X--2-----0---0-5---0--2p0---0-|
A|-2--X-X--2-2-2---3-X-3-3-3-3-|--2-X-X--2---2---0-----3--------3---|
E|-0--X-X--0-0-0---0-X-0-0-0-0-|--0-X-X--0--------------------------|


e|--------------------------------------------------------|
B|---------5-5-5--------1-1-1-1---5--X-X--5-5-5---1-1-1-1-|
G|---------4-4-4----0---0-0-0-0---4--X-X--4-4-4---0-0-0-0-|
D|-2--X-X--2-2-2----2---2-2-2-2---2--X-X--2-2-2---2-2-2-3-|
A|-2--X-X--2-2-2----3-X-3-3-3-3---0--X-X--0-0-0---3-3-3-3-|
E|-0--X-X--0-0-0----0-X-0-0-0-0-------------------0-0-0-0-|

Verse
                               X2
e|---------------------------|------------------------|
B|---------5-5-5-------------|---------5-5-5----------|
G|---------4-4-4-------------|---------4-4-4----------|
D|-2--X-X--2-2-2-----2p0-----|--2-X-X--2-2-2----2p0---|
A|-2--X-X--2-2-2-----------3-|--2-X-X--2-2-2----------|
E|-0--X-X--0-0-0---3-----3---|--0-X-X--0-0-0--3-------|

e|--------------------------|
B|---------1-1-1------------|
G|---0-0---0-0-0------------|
D|-4-4-4---2-2-2--0h2p0---0-|
A|-5-5-5---3-3-3--------2---|
E|--------------------------|


e|---------------------------|------------------------------|
B|---------5-5-5-------------|---------5-5-5----------------|
G|---------4-4-4-------------|---------4-4-4----------------|
D|-2--X-X--2-2-2-----2p0-----|--2-X-X--2-2-2--------2p0---0-|
A|-2--X-X--2-2-2-----------3-|--2-X-X--2-2-2----3-----------|
E|-0--X-X--0-0-0---3-----3---|--0-X-X--0-0-0--3---3---------|

------------------------|--------------------------|
---------5-5-5----------|---------1-1-1------------|
---------4-4-4----------|---0-0---0-0-0------------|
--2-X-X--2-2-2----2p0---|-4-4-4---2-2-2--0h2p0---0-|
--2-X-X--2-2-2----------|-5-5-5---3-3-3--------2---|
--0-X-X--0-0-0--3-------|--------------------------|

- Chorus
- Verse

e|------------------------------------------------0----
B|-------------------------------------------------0---
G|-----4---4-4-----4-----4------4---4-4-----4-------4--
D|---2---2-----2-----2--------2---2-----2-----2------2-
A|-0-------------0-----0----3-------------3-----3------
E|-----------------------------------------------------

  -0--0--0-0--0-0-0-0-0-0--0--0-0-0--0--0-0-0-|
  -0--0--0-0--0-0-0-0-0-0--0--0-0-0--0--0-0-0-|
  -4--4--4-4--4-4-4-4-4-4--4--4-4-4--2--2-2-2-|
  -2--2--2-2--2-2-2-2-2-2--5--5-5-5--3--3-3-3-|
  -------------------------5--5-5-5--3--3-3-3-|
  -------------------------3--3-3-3--1--1-1-1-|


e|----3-3-3--1-|---0--0-0-0-0--0-0--0--0-0-0-0-|
B|----3-3-3--1-|-0----0-0-0-0--3-3-----3-3-3-3-|
G|----4-4-4--2-|-1----1-1-1-1--1-1-----1-1-1-1-|
D|-5--5-5-5--3-|-2----2-2-2-2--2-2-----2-2-2-2-|
A|-5--5-5-5--3-|-2----2-2-2-2--2-2-----2-2-2-2-|
E|-3--3-3-3--1-|-0-----------------------------|

- Chorus

End

e|-0-|
B|-0-|
G|-1-|
D|-2-|
A|-2-|
E|---|
            
Submit corrections

comments powered by Disqus
↑ Back to top | Incubus Tabs for 11 A.M. Lyrics for acoustic guitar and electric guitar. Tablatures and chords are parodies/interpretations of the original songs. You may use it for private study, scholarship, research or language learning purposes only