» » »

Green Day, Walking Alone Tabs (ver.2)

Artists:  A B C D E F G H I J K L M N O P Q R S T U V W X Y Z # 

Walking Alone Tabs (ver.2)

Green Day Tabs
 Rating:
4/5 (4 votes)
Walking Alone lessons Tabs too difficult? Try these video lessons and learn fast
1
                -

 13. Walking Alone                                        Green Day - Nimrod

-




HARMONICA

E|-----------------|-----------------|-----------------|-----------------|

B|-----8-----------|-----------------|-----8-----------|-----------------|

G|---------7-------|-9b10r9----------|---------7-------|-9b10r9----------|

D|-----------9-----|-----------------|-----------9-----|-----------------|

A|-----------------|-----------------|-----------------|-----------------|

E|-----------------|-----------------|-----------------|-----------------|


INTRO

E|-----------------|-----------------|-----------------|-----------------|

B|-----------------|-----------------|-----------------|-----------------|

G|-----------------|-----------------|-----------------|-----------------|

D|-5-5-5-5-5-5-5-5-|-2-2-2-2-2-2-2-2-|-5-5-5-5-5-5-5-5-|-2-2-2-2-2-2-2-2-|

A|-5-5-5-5-5-5-5-5-|-2-2-2-2-2-2-2-2-|-5-5-5-5-5-5-5-5-|-2-2-2-2-2-2-2-2-|

E|-3-3-3-3-3-3-3-3-|-0-0-0-0-0-0-0-0-|-3-3-3-3-3-3-3-3-|-0-0-0-0-0-0-0-0-|


VERSE

E|-----------------|-----------------|-----------------|-----------------|

B|-----------------|-----------------|-----------------|-----------------|

G|-----------------|-----------------|-5-5-5-5-5-5-5-5-|-7-7-7-7-7-7-7-7-|

D|-5-5-5-5-5-5-5-5-|-2-2-2-2-2-2-2-2-|-5-5-5-5-5-5-5-5-|-7-7-7-7-7-7-7-7-|

A|-5-5-5-5-5-5-5-5-|-2-2-2-2-2-2-2-2-|-3-3-3-3-3-3-3-3-|-5-5-5-5-5-5-5-5-|

E|-3-3-3-3-3-3-3-3-|-0-0-0-0-0-0-0-0-|-----------------|-----------------|

CHORUS

E|-----------------|-----------------|-----------------|-----------------|

B|-----------------|-----------------|-----------------|-----------------|

G|-5-5-5-5-5-5-5-5-|-7-7-7-7-7-7-7-7-|-5-5-5-5-5-5-5-5-|-7-7-7-7-7-7-7-7-|

D|-5-5-5-5-5-5-5-5-|-7-7-7-7-7-7-7-7-|-5-5-5-5-5-5-5-5-|-7-7-7-7-7-7-7-7-|

A|-3-3-3-3-3-3-3-3-|-5-5-5-5-5-5-5-5-|-3-3-3-3-3-3-3-3-|-5-5-5-5-5-5-5-5-|

E|-----------------|-----------------|-----------------|-----------------|



E|-----------------|-----------------|-----------------|-----------------|

B|-----------------|-----------------|-----------------|-----------------|

G|-----------------|-----------------|-----------------|-----------------|

D|-5-5-5-5-5-5-5-5-|-7-7-7-7-7-7-7-7-|-5---5-5-3---3-3-|-2-2-2-2---2-2-2-|

A|-5-5-5-5-5-5-5-5-|-7-7-7-7-7-7-7-7-|-5---5-5-3---3-3-|-2-2-2-2---2-2-2-|

E|-3-3-3-3-3-3-3-3-|-5-5-5-5-5-5-5-5-|-3---3-3-1---1-1-|-0-0-0-0---0-0-0-|



E|-----------------|-----------------|

B|-----------------|-----------------|

G|-5-5-5-5-5-5-5-5-|-7-7-7-7-7-7-7-7-|

D|-5-5-5-5-5-5-5-5-|-7-7-7-7-7-7-7-7-|

A|-3-3-3-3-3-3-3-3-|-5-5-5-5-5-5-5-5-|

E|-----------------|-----------------|


SOLO

E|-----------------|-----------------|-----------------|-----------------|

B|---8-------------|-----------------|-----------------|-----------------|

G|-------7-------9-|-9b10r9----------|-----9---12--9---|-----11--13--11--|

D|---------9-------|---------------9-|-10------------10|-12------------12|

A|-----------------|-----------------|-----------------|-----------------|

E|-----------------|-----------------|-----------------|-----------------|


Intro w/ INTRO & HARMONICA


Verse 1 w/ VERSE

Come together like a foot in a shoe.

Only this time I think I stuck my foot in my mouth.

Thinking out loud and acting in vain.

Knocking over anyone that stands in my way.


Chorus w/ CHORUS

Sometimes I need to apologize.

Sometimes I need to admit that I ain't right.

Sometimes I should just keep my mouth shut,

or only say hello.

Sometimes I still feel I'm walking alone.


Interlude w/ INTRO & HARMONICA


Verse 2 w/ VERSE

Walk on eggshells on my old stomping ground.

Yet there's really no one left, that's hanging around.

Isn't that another familiar face?

Too drunk to figure out they're fading away.


Interlude


Solo w/ VERSE & SOLO


Chorus


Interlude
            
Submit corrections

comments powered by Disqus
↑ Back to top | Green Day Tabs for Walking Alone. Lyrics for acoustic guitar and electric guitar. 1 Tablatures and chords are parodies/interpretations of the original songs. You may use it for private study, scholarship, research or language learning purposes only