» » »

Walking Alone Tabs (ver.1)

Artists:  A B C D E F G H I J K L M N O P Q R S T U V W X Y Z # 

Walking Alone Tabs (ver.1)

Green Day
Rating:
0/5 (0 votes)

Hard to play? Try these video lessons and learn fast.
                Words by Billie Joe Armstrong
Music by Green Day - REEEEEEEESPECT to the "green day"



INTRO
G               E
G               E                

intro solo on harmonica (play it on guitar if you want)
IG          IE
e|------------------------------------------|
B|-8----------------------------------------|
G|---7-4-9b(10)r(9)-------------------------|
D|------------------------------------------|
A|------------------------------------------|
E|------------------------------------------|
IG          IE
e|------------------------------------------|
B|-8----------------------------------------|
G|---7-4-9b(10)r(9)-------------------------|
D|------------------------------------------|
A|------------------------------------------|
E|------------------------------------------|


VERSE 1
G                               E
Come together like a foot in a shoe
C                                             D
Only this time I think I stuck my foot in my mouth
G                              E
Thinking out loud and acting in vain
C                                       D
Knocking over anyone that stands in my way


CHORUS
C                             D
Sometimes I need to apologize
C                                      D   
Sometimes I need to admit that I ain't right
C                                    D 
Sometimes I should just keep my mouth shut
   G     F     E
Or only say hello
C                       D                     G
Sometimes I still feel I'm walking alone


G               E
G               E

intro solo on harmonica - played again (play it on guitar if you want)
IG          IE
e|------------------------------------------|
B|-8----------------------------------------|
G|---7-4-9b(10)r(9)-------------------------|
D|------------------------------------------|
A|------------------------------------------|
E|------------------------------------------|
IG          IE
e|------------------------------------------|
B|-8----------------------------------------|
G|---7-4-9b(10)r(9)-------------------------|
D|------------------------------------------|
A|------------------------------------------|
E|------------------------------------------|


VERSE 2
G                                   E    
Walk on eggshells on my old stomping ground
C                                          D
Yet there's really no one left, that's hanging around
G                      E
Isn't that another familiar face
C                                           D
Too drunk to figure out they're fading away

Chorus
C                             D
Sometimes I need to apologize
C                                      D   
Sometimes I need to admit that I ain't right
C                                    D 
Sometimes I should just keep my mouth shut
   G     F     E
Or only say hello
C                       D                     G
Sometimes I still feel I'm walking alone

Intro solo on harmonica - played again (play it on guitar if you want)
IG         IE
e|------------------------------------------|
B|-8----------------------------------------|
G|---7-4-9b(10)r(9)-------------------------|
D|------------------------------------------|
A|------------------------------------------|
E|------------------------------------------|
IG         IE
e|------------------------------------------|
B|-8----------------------------------------|
G|---7-4-9b(10)r(9)-------------------------|
D|------------------------------------------|
A|------------------------------------------|
E|------------------------------------------|


Guitar solo
IG         IE             IC         ID
e|----------------------------0-3------2-5--|
B|-8--------------------0-1------2-3--------|
G|---7-4-9b(10)r(9)-------------------------|
D|------------------------------------------|
A|------------------------------------------|
E|------------------------------------------|

C                             D
Sometimes I need to apologize
C                                      D   
Sometimes I need to admit that I ain't right
C                                    D 
Sometimes I should just keep my mouth shut
   G     F     E
Or only say hello
C                       D                     G
Sometimes I still feel I'm walking alone

Intro solo (played as the outro) on harmonica - played again (play it on guitar if you
want)
IG         IE
e|------------------------------------------|
B|-8----------------------------------------|
G|---7-4-9b(10)r(9)-------------------------|
D|------------------------------------------|
A|------------------------------------------|
E|------------------------------------------|
IG         IE
e|------------------------------------------|
B|-8----------------------------------------|
G|---7-4-9b(10)r(9)-------------------------|
D|------------------------------------------|
A|------------------------------------------|
E|------------------------------------------|

IG         IE
e|------------------------------------------|
B|-8----------------------------------------|
G|---7-4-9b(10)r(9)-------------------------|
D|------------------------------------------|
A|------------------------------------------|
E|------------------------------------------|
IG         IE
e|------------------------------------------|
B|-8----------------------------------------|
G|---7-4-9b(10)r(9)-------------------------|
D|------------------------------------------|
A|------------------------------------------|
E|------------------------------------------|
            
Hard to play? Try these video lessons and learn fast. | Correct




comments powered by Disqus
↑ Back to top | Tablatures and chords are parodies/interpretations of the original songs. You may use it for private study, scholarship, research or language learning purposes only